Song name
# A B C D E F G H I J K L M N O P Q R S T U V W X Y Z

Scott Matthews - City Headache tab

----------------------------------------------------------------------------
       		         CITY HEADACHE - Scott Matthews
----------------------------------------------------------------------------
Tabbed by: Eddie Adams/100%guitarmad
Email: edmedmoped@yahoo.co.uk

Tuning: Standard

Transcribed from this video: http://www.youtube.com/watch?v=ELgRlVRjUNU
The chords below are repeated throughout the song.


INTRO: (4/4)

    Cmaj7       B7+11        Em     F#m       G6
e|-0--0-0-x----0--0-0-x----0--0-0----0-----0---0--0---|
B|-0--0-0-x----0--0-0-x----0--0-0----0-----0---0--0---|
G|-0--0-0-x----2--2-2-x----0--0-0----0-----0---0--0---|
D|-2--2-2-x----1--1-1-x----5--5-5----7-----9---9--9---|
A|-3--3-3-x-----------x----7--7-7----9----10--10-10---|
E|-3--3-3-x----2--2-2-x----7--7-7----9----10--10-10---|

    Cmaj7       B7+11
e|-0--0-0-x----0--0-0-x----0-0-0-0-0-0-0---0-0-0-0-0-0-0---|
B|-0--0-0-x----0--0-0-x----7-7-7-7-7-7-7---7-7-7-7-7-7-7---|
G|-0--0-0-x----2--2-2-x----5-5-5-5-5-5-5---5-5-5-5-5-5-5---|
D|-2--2-2-x----1--1-1-x------------------------------------|
A|-3--3-3-x-----------x----7-7-7-7-7-7-7---7-7-7-7-7-7-7---|
E|-3--3-3-x----2--2-2-x----7-7-7-7-7-7-7---7-7-7-7-7-7-7---|



VERSE: (4/4)

    Cmaj7       B7+11        Em     F#m       G6
e|-0--0-0-x----0--0-0-x----0--0-0----0-----0---0--0---|
B|-0--0-0-x----0--0-0-x----0--0-0----0-----0---0--0---|
G|-0--0-0-x----2--2-2-x----0--0-0----0-----0---0--0---|
D|-2--2-2-x----1--1-1-x----5--5-5----7-----9---9--9---|
A|-3--3-3-x-----------x----7--7-7----9----10--10-10---|
E|-3--3-3-x----2--2-2-x----7--7-7----9----10--10-10---|

    Cmaj7       B7+11
e|-0--0-0-x----0--0-0-x----0-0-0-0-0-0-0---|
B|-0--0-0-x----0--0-0-x----7-7-7-7-7-7-7---|
G|-0--0-0-x----2--2-2-x----5-5-5-5-5-5-5---|
D|-2--2-2-x----1--1-1-x--------------------|
A|-3--3-3-x-----------x----7-7-7-7-7-7-7---|
E|-3--3-3-x----2--2-2-x----7-7-7-7-7-7-7---|



CHORUS: (3/4)

    Cmaj7       B7+11        Em     F#m       G6
e|-0--0-0-x----0--0-0-x----0--0-0----0-----0---0--0---|
B|-0--0-0-x----0--0-0-x----0--0-0----0-----0---0--0---|
G|-0--0-0-x----2--2-2-x----0--0-0----0-----0---0--0---|
D|-2--2-2-x----1--1-1-x----5--5-5----7-----9---9--9---|
A|-3--3-3-x-----------x----7--7-7----9----10--10-10---|
E|-3--3-3-x----2--2-2-x----7--7-7----9----10--10-10---|

    Cmaj7       B7+11           Em
e|-0--0-0-x----0--0-0-x----0-0-0-0-0-0-0---|
B|-0--0-0-x----0--0-0-x----0-0-0-0-0-0-0---|
G|-0--0-0-x----2--2-2-x----0-0-0-0-0-0-0---|
D|-2--2-2-x----1--1-1-x----5-5-5-5-5-5-5---|
A|-3--3-3-x-----------x----7-7-7-7-7-7-7---|
E|-3--3-3-x----2--2-2-x----7-7-7-7-7-7-7---|

__________________________^x2^____________________________

    Cmaj7       B7+11           D6
e|-0--0-0-x----0--0-0-x----0-0-0-0-0-0-0---|
B|-0--0-0-x----0--0-0-x----0-0-0-0-0-0-0---|
G|-0--0-0-x----2--2-2-x----0-0-0-0-0-0-0---|
D|-2--2-2-x----1--1-1-x----3-3-3-3-3-3-3---|
A|-3--3-3-x-----------x----5-5-5-5-5-5-5---|
E|-3--3-3-x----2--2-2-x----5-5-5-5-5-5-5---|

    Cmaj7       B7+11   (hold chord)
e|-0--0-0-x----0--0-0---|
B|-0--0-0-x----0--0-0---|
G|-0--0-0-x----2--2-2---|
D|-2--2-2-x----1--1-1---|
A|-3--3-3-x-------------|
E|-3--3-3-x----2--2-2---|

(4/4)
e|--------0-------|
B|----------0-----|
G|------------2-0-|
D|----------------|
A|---2-2-2--------|
E|----------------|
Tap to rate this tab
 
# A B C D E F G H I J K L M N O P Q R S T U V W X Y Z