Song name
# A B C D E F G H I J K L M N O P Q R S T U V W X Y Z

Scott Matthews - The Boy With The Thorn In His Side tab

Scott Matthews - The Boy With The Thorn In His Side

This tab is taken from this video:
http://www.youtube.com/watch?v=OuQBwtkFRow&feature=feedf - which you can use as a guide 
to the rhythm, but it sounds pretty good to me. The
bass notes might be a bit messed up but you can figure it out.

Open D Tuning

Capo on 5th Fret

Introduction

Part 1

|--4-----5---------------------0--4--5---------|
|----5---(5)-7---7---7------0-----------7---7--|
|------3-------7---7----1-----------------7----|
|-------------------------0---0----------------|
|----------------------------------------------|
|--0---0-0---7---7---7--2---2--2--5--5--7---7--|

Part 2

|--4-----5---------------------0---------------|
|----5---(5)-7---7---7------0-------5-------7--|
|------3-------7---7----1---------5---5-5/7----|
|-------------------------0---0----------------|
|----------------------------------------------|
|--0---0-0---7---7---7--2---2--2----5---5/7-7--|

--------------------------------------|
----5-------7----5---5-------7---5--7-|
--5---5-5/7----5---5---5-5/7---7-5--7-|
--------------------------------------|
--------------------------------------|
--5---5/7-7----5---5---5-5/7---7-5--7-|

Verse (Repeat throughout) At the end of every verse it plays the second part of the intro.

|----------------------------------0--------------|
|--5---5---5----7---7---7------0-------5-------7--|
|----0---0--------7---7----1---------5---5-5/7----|
-----------------------------0---0----------------|
|-------------------------------------------------|
|--0---0---0----7---7---7--2---2--2----5---5/7-7--|
Tap to rate this tab
 
# A B C D E F G H I J K L M N O P Q R S T U V W X Y Z