Scott Matthews - Musical Interval tab

-----------------------------------------------------------------------------
		     MUSICAL INTERVAL - Scott Matthews
-----------------------------------------------------------------------------

Tuning: Open D


A groovy little song on the album Passing Stranger. Be nice and repetitive with that 6th string.


MAIN THEME:
D |-------------------------------|
A |-------------------------------|
F#|------------H------------------|
D |---3---3---3-4---0-----H-------|
A |--------------------0-3-5------|
D |-0---0---0---------------------|

D |-------------------------------|
A |-----------------5--3--2--(0)--|
F#|------------H------------------|
D |---3---3---3-4-----------------|
A |-------------------------------|
D |-0---0---0---------------------|

D |-------------------------------|
A |-------------------------------|
F#|------------H------------------|
D |---3---3---3-4---0-----H-------|
A |--------------------0-3-5------|
D |-0---0---0---------------------|

1_________________________________
D |-------------------------------|
A |-------------------------------|
F#|---.---------------------------|
D |---3-----------H-P-------------|
A |-----------0--3-5-3---0--3-----|
D |-0-------------------------3---|

2_________________________________
D |-------------------------------|
A |-------------------------------|
F#|------------H------------------|
D |---3---3---3-4-----------------|
A |-------------------------------|
D |-0---0---0---------------------|



CHORDS:

   Bm         D/A        D/A     Dsus4/D#
D |-0-|    D |-0-|    D |-0-|    D |-0-|
A |-2-|    A |-0-|    A |-0-|    A |-0-|
F#|-0-|    F#|-0-|    F#|-0-|    F#|-1-|
D |-0-|    D |-0-|    D |-0-|    D |-0-|
A |-2-|    A |-0-|    A |-0-|    A |---|
D |---|    D |---|    D |---|    D |-1-|


D |-------------------|
A |--3-3-3-3-3-3-3-3--|
F#|--3-3-3-3-3-3-3-3--|
D |--0-0-0-0-0-0-0-0--|
A |-------------------|
D |--3-3-3-3-3-3-3-3--|

D |--0---0--0---0--0-0-0---|
A |--9--10--9--10--9-9-9---|
F#|--0---0--0---0--0-0-0---|
D |--0---0--0---0--0-0-0---|
A |--9--10--9--10--9-9-9---|
D |------------------------| x4


A few listens should give you the structure and how the chords are played!
Tap to rate this tab
 
# A B C D E F G H I J K L M N O P Q R S T U V W X Y Z