Song name
# A B C D E F G H I J K L M N O P Q R S T U V W X Y Z

Scott Mckeon - So Much More tab

-------------------------------------------------------------------------------
                             Scott McKeon - So Much More
-------------------------------------------------------------------------------
Tabbed by: Tom Burns

Tuning: Eb ( D# G# C# F# A# D# )

e|----------------------------------------------------------------------------|
B|-----------------------8---------7------------------------------------------|
G|-----------------------7---------7-------------- -7-------------------------|
D|------7----------7-----------5----------------7 -7--------------------------|
A|---0----------------------------------9-10----------------------------------|
E|-----------7-8------------------------------------------8^------------------|

Chorus - A -C- G - C
Other  Chords Part (2:32) F- G

Set on a loop solo and enjoy!

www.scottmckeon.com

************************************

| /   slide up
| \   slide down
| h   hammer-on
| p   pull-off
| ~   vibrato
| +   harmonic
| x   Mute note
| b   Bend
| pb  Pre-bend
| br  Bend release
| pbr Pre-bend release
| brb Bend release bend

************************************
Tap to rate this tab
# A B C D E F G H I J K L M N O P Q R S T U V W X Y Z