Song name
# A B C D E F G H I J K L M N O P Q R S T U V W X Y Z

Scott Smith Band - Physcopathic Bitch tab

This is the Tab's for Physcopathic Bitch from
the Scott Smith Band.  This is a very easy song
to play.

Song Writtten By S.Smith/C.Caparoso
Tabbed by:  Reyes at Gi88@yahoo.com

Intro
------5------5---------5--------3--4/5----|
------5------5---------3--------0---------|
------3------3---------3------------------|
------------------------------------------|
------------------------------------------|
------------------------------------------|

Continous Riff:

--------------------------3-------3---------|
--------------------------3-------3---------|
----------3--5--7---------4-------4---------|
----------3--5--7---------5-------5---------|
----------1--3--5---------5-------5---------|
--------------------------3-------3---------|
   "She's such a B--i---t----c--------------|h!"

End

----7-----------5-------------3------------|
------0------------0------------0----------|
--------0------------0------------0--------|
----------0------------0------------0------|
-------------------------------------------|
----7-----------5-------------3------------|
        Finger picked on this part
Tap to rate this tab
# A B C D E F G H I J K L M N O P Q R S T U V W X Y Z