Song name
# A B C D E F G H I J K L M N O P Q R S T U V W X Y Z

Scott Stapp - Great Divide tab

artist: Scott stapp
title: "great divide"
album: The Great Divide

Tuning: Drop D (DADBGE)

INTRO
E----------5-----------------5-------------------[
G------7-----7---7-------7-----------7----7------[
B----7---7----------7------7---7--------7---7----[
D--0-----------0---0---------------0---0---------[
A------------------------------------------------[
D------------------------------------------------[

E--------10-9-10-10------10-9-10-10--------------[
G--7h8---------------7h8-------------------------[
B------------------------------------------------[
D------------------------------------------------[
A------------------------------------------------[
D------------------------------------------------[

E------------------------------------------------[
G------------------------------------------------[
B---7/6-6-6-6/7-7-7-7----------------------------[
D---x/x-x-x-x-x-x-x-x----------------------------[
A---5/4-4-4-4/5-5-5-5----------------------------[
D------------------------------------------------[

::::::::::::::::::::::::::::::::::::::::::::::::::::::

CHORUS
E-----------------------------------------------------------------[
G-----------------------------------------------------------------[
B-7-7-7--7-6---------7-6---------7-6---------7-6--------9-7-6h7p6-[
D-7-7-7--x-x--5-5-5--x-x--9-9-9--x-x--7-7-7--x-x--0-0-0-----------[
A-5-5-5--5-4--5-5-5--5-4--9-9-9--5-4--7-7-7--5-4--0-0-0-----------[
D-------------5-5-5-------9-9-9-------7-7-7-------0-0-0-----------[

E-----------------------[
G-----------------------[
B------9-7-6h7p6-7~-----[
D-000-------------------[
A-000-------------------[
D-000-------------------[

::::::::::::::::::::::::::::::::::::::::::::::::::::::

E----------5-----------------5-------------------[
G------7-----7---7-------7-----------7----7------[
B----7---7----------7------7---7--------7---7----[
D--0-----------0---0---------------0---0---------[
A------------------------------------------------[
D------------------------------------------------[

E--------10-9-10-10------10-9-10-10--------------[
G--7h8---------------7h8-------------------------[
B------------------------------------------------[
D------------------------------------------------[
A------------------------------------------------[
D------------------------------------------------[

E------------------------------------------------[
G------------------------------------------------[
B---7/6-6-6-6/7-7-7-7----------------------------[
D---x/x-x-x-x-x-x-x-x----------------------------[
A---5/4-4-4-4/5-5-5-5----------------------------[
D------------------------------------------------[

::::::::::::::::::::::::::::::::::::::::::::::::::::::

E------------------------------------------------------------------------[
B------------------------------------------------------------------------[
G-7-7-7--7-6---------7-6---------7-6---------7-6--7-7-7--7-6---------7-6-[
D-7-7-7--x-x--5-5-5--x-x--9-9-9--x-x--7-7-7--x-x--7-7-7--x-x--5-5-5--x-x-[
A-5-5-5--5-4--5-5-5--5-4--9-9-9--5-4--7-7-7--5-4--5-5-5--5-4--5-5-5--5-4-[
D-------------5-5-5-------9-9-9-------7-7-7-------------------5-5-5------[

E-------------------------------------------------------------------------[
B-------------------------------------------------------------------------[
G--------7-6---------7-6-------9-7-6h7p6------9-7-6h7p6-------9-7-6h7p6-7-[
D-9-9-9--x-x--7-7-7--x-x--0-0-0----------0-0-0----------0-0-0-----------7-[
A-9-9-9--5-4--7-7-7--5-4--0-0-0----------0-0-0----------0-0-0-----------5-[
D-9-9-9-------7-7-7-------0-0-0----------0-0-0----------0-0-0-------------[

::::::::::::::::::::::::::::::::::::::::::::::::::::::

E------------------------------------------------[
G--8p7p5--7----8p7p5-7---8p7p5-7----8p7p5-7------[
B----------7----------7---------7----------7-----[
D------------------------------------------------[
A------------------------------------------------[
D------------------------------------------------[

Well Thats It
Tap to rate this tab
 
# A B C D E F G H I J K L M N O P Q R S T U V W X Y Z