Song name
# A B C D E F G H I J K L M N O P Q R S T U V W X Y Z

Scott Stapp - Justify tab

5 and 6 strings i dropped down for 2...


|-----------------------------------------------------------------|
|-----6---5-----------6---5-----------6---5-----------5-6---------|
|---------------------------------------------------------7-------|
|---7---7---7---7---7---7---7---7---7---7---7---7---7-------7---7-|
|---------------------------------5-----------5---5-----------5---|
|-0-----------0---0-----------0-----------------------------------|


|-----------------------------------------------------------------|
|-----6---5-----------6---5-----------6---5-----------5-6-3-------|
|-----------------------------------------------------------------|
|---7---7---7---7---7---7---7---7---7---7---7---7---7-------7---7-|
|-3-----------3---3-----------3---3-----------3---3-----------3---|
|-----------------------------------------------------------------|
Tap to rate this tab
# A B C D E F G H I J K L M N O P Q R S T U V W X Y Z