Song name
# A B C D E F G H I J K L M N O P Q R S T U V W X Y Z

Scott Stapp - You Will Soar tab

Name:Branden Nardulli
Artist:Scott Stapp
Song Name:You Will Soar
Email:nardulli22@yahoo.com (if u have any questions)
Tuning:Drop D (DADGBe)

This is 99 percent correct. If you have any questions email me.
Scott Stapp is my fav. band. thats why i decided to do a couple tabs. This is my 2nd scott stapp tab.
_________________________________________________________________________

                     Intro

E|5-5-5-3-5-2-2-2-2-2-2-5-5-5-3-2-2-2-2-2-2----|
B|---------------------------------------------|
G|---------------------------------------------|  play again (bass kicks in)
D|---------------------------------------------|
A|---------------------------------------------|  play during verse too
D|---------------------------------------------|


                     Verse 1 (intro still playing)
PM
E|-------------------------|
B|-------------------------|   play through whole verse
G|-------------------------|
D|9--------5-------------0-|
A|9--------5-------------0-|
D|9--------5-------------0-|
  If I Had just 1 thing 2 say...

                     Chorus
E|-----------------------------------------|
B|-----------------------------------------|
G|-----------------------------------------|
D|2---------------5--------------------0---|
A|2---------------5--------------------0---| x2
D|2---------------5--------------------0---|
  Keep Hoping and dreaming and you will soar

                 Repeat Verse (different lyrics)

                 Repeat Chorus

                 Bridge (Same as Verse)

                 Chorus x2
Tap to rate this tab
 
# A B C D E F G H I J K L M N O P Q R S T U V W X Y Z