Song name
# A B C D E F G H I J K L M N O P Q R S T U V W X Y Z

Scott Walker - A Lover Loves tab

Help us improve GuitareTab! Take a short survey!
  A5
e|--------------------------------|
B|--------------------------------|
G|--------------------------------|
D|--------------------------------|
A|----7-------7-------7-------7---|
E|5-------5-------5-------5-------|

  F5
e|--------------------------------|
B|--------------------------------|
G|--------------------------------|
D|--------------------------------|
A|----3-------3-------3-------3---|
E|1-------1-------1-------1-------|

  Ab5
e|--------------------------------|
B|--------------------------------|
G|--------------------------------|
D|--------------------------------|
A|----6-------6-------6-------6---|
E|4-------4-------4-------4-------|

  E5
e|--------------------------------|
B|--------------------------------|
G|--------------------------------|
D|--------------------------------|
A|----2-------2-------2-------2---|
E|0-------0-------0-------0-------|

  E5addb9
e|--------------------------------|
B|--------------------------------|
G|--------------------------------|
D|----3-------3-------3-------3---|
A|----2-------2-------2-------2---|
E|0-------0-------0-------0-------|

  E.b5
e|--------------------------------|
B|--------------------------------|
G|--------------------------------|
D|----2-------2-------2-------2---|
A|----1-------1-------1-------1---|
E|0-------0-------0-------0-------|

  Abmaj7sus#4 (well you tell me? :)
e|--------------------------------|
B|--------------------------------|
G|----0-------0-------0-------0---|
D|----0-------0-------0-------0---|
A|----6-------6-------6-------6---|
E|4-------4-------4-------4-------|

A5                   F5
Corneas misted color high psst psst... 
A5                          F5
Motionless for seconds at a time psst psst...
Ab5                          E5
A hand that's cold in another colder psst psst..
Ab5              E5              E5addb9
And everything within reach psst psst psst

This is a waltz for a dodo a samba for Bambi Gavotte for the Kaiser 
E.b5             E5addb9
Bolero for Beuys a reel for Red Rosa a polka for Tintin
A5                   F5
Corneas misted color high psst psst..
A5                      F5
Motionless for seconds at a time psst psst..
Ab5                            E5
One hand that is cold in another colder psst psst..
Ab5                   Abmaj7sus#4
And everything within reach 
Related for A Lover Loves tab