Song name
# A B C D E F G H I J K L M N O P Q R S T U V W X Y Z

Scott Weiland - Blister On My Soul tab

Artist: Scott Weiland
Song: Blister On My Soul
Album: "Happy" In Galoshes

this isn't 100% right or comprehensive, but it'll give you a decent idea how to play the song.

Intro -
e|-------------------------------------------------------|
B|-/7-5-3-3-5-3~--/7-5-3-3-5-----/7-5-3-3-5-3~--3-3-3-2~-|
G|---------------------------6~--------------------------|
D|-------------------------------------------------------|
A|-------------------------------------------------------|
E|-------------------------------------------------------|

Verse -

(Guitar 1)
e|--------------|
B|--------------|
G|-11--12--14~--|
D|--x---x---x---|
A|--9--10--12~--|
E|--------------|

(Guitar 2)
D | Bm | D | A
D | Bm | D | A

Bridge -

(Guitar 1)
e|-19----19----17----17----|
B|----17----17----17----17-|
G|-------------------------|
D|-------------------------|
A|-------------------------|
E|-------------------------|

(Guitar 2)
Em A

Chorus -

(Guitar 1)
e|-14-14-14-----------------------------------------19----19----17----17----|
B|----------15-15-15-------15-15-15-15-15-15-15-15-----17----17----17----17-|
G|-------------------14-14--------------------------------------------------|
D|--------------------------------------------------------------------------|
A|--------------------------------------------------------------------------|
E|--------------------------------------------------------------------------|

(Guitar 2)
D | G | Bm | Em A

Breakdown/Reggae Bit -

Both Guitars just mess around with
D | G | Bm | A


...and thats pretty much all you need to play the song.
Tap to rate this tab
# A B C D E F G H I J K L M N O P Q R S T U V W X Y Z