Song name
# A B C D E F G H I J K L M N O P Q R S T U V W X Y Z

Scott Weiland - Killing Me Sweetly tab

Killing Me Sweetly
Scott Weiland
"Happy" In Golashes
Standard Tuning
Tabbed by: chronic_stp

There is only one tab on this site with a song from this album. Unacceptable. This is 
the intro/chorus. I will be working on the rest of the song later. :)

KEY
/= Slide Down
h= Hammer-on
~= Vibrato


Intro
e|-------------------------------------------------------8~-----------|
B|-5--5/7--4--4-4-4-4-----8-7h8-10~-----0----------8-7h8----7-8-10----|
G|-----------------------------------/5-4h5-5~--------------7---------|
D|-5--5/7--4-----------/7-----------------------/7--------------------|
A|--------------------------------------------------------------------|
E|--------------------------------------------------------------------|

e|---------------------------------|
B|----8-7-8-4----4-4----4-4----8-8-|
G|---------------------------------|
D|-/7-------4--4------4------4-8-8-|
A|---------------------------------|
E|---------------------------------|

Please rate and comment. It would be greatly appreciated! ;)
Tap to rate this tab
# A B C D E F G H I J K L M N O P Q R S T U V W X Y Z