Song name
# A B C D E F G H I J K L M N O P Q R S T U V W X Y Z

Scott Weiland - Missing Cleveland tab

Missing Cleveland
Scott Weiland
"Happy in Golashes" 2008
Standard Tunin (EADGBE)
Tabbed by: chronic_stp

My goal is to tab out every song on the deluxe version of Scott Weiland's "Happy in 
I will be extremely surprised if I actually do this, so don't have your hearts too broken if 
don't.


Intro/Verse: (You can play the following power-chord notes as barre-chords if you think 
sound better. I have provided the following chord names above each power chord)

Play 2 times
   C     B     A    G    F    Em   Em F  G  A  G  F  Em
e|------------------------------------1--3--5--3--1------|
B|------------------------------------1--3--5--3--1------|
G|------------------------------------2--4--6--4--2------|
D|-10----10----7----5----3----2----2--3--5--7--5--3--2---|
A|-10----10----7----5----3----2----2--3--5--7--5--3--2---|
E|-8-----7-----5----3----1----0----0--1--3--5--3--1--0---|

Pre-Chorus

   A5  A   A5  A   F5  F   F5  F   A5  A   A5  A   F5  F   F5  F
e|-----5-------5-------1-------1-------5-------5-------1-------1--|
B|-----5-------5-------1-------1-------5-------5-------1-------1--|
G|-----6-------6-------2-------2-------6-------6-------2-------2--|
D|-7---7---7---7---3---3---3---3---7---7---7---7---3---3---3---3--|
A|-7---7---7---7---3---3---3---3---7---7---7---7---3---3---3---3--|
E|-5---5---5---5---1---1---1---1---5---5---5---5---1---1---1---1--|

   A         G         F         E5        A         G         F
e|-5---5-5---3---3-3---1---1-1-------------5---5-5---3---3-3---1---1-1-|
B|-5---5-5---3---3-3---1---1-1-------------5---5-5---3---3-3---1---1-1-|
G|-6---6-6---4---4-4---2---2-2-------------6---6-6---4---4-4---2---2-2-|
D|-7---7-7---5---5-5---3---3-3---2---2-2---7---7-7---5---5-5---3---3-3-|
A|-7---7-7---5---5-3---3---3-3---2---2-2---7---7-7---5---5-5---3---3-3-|
E|-5---5-5---3---3-3---1---1-1---0---0-0---5---5-5---3---3-3---1---1-1-|

   F  G  Ab A  Bb B  C
e|-1--3--4--5--6--7--8--|
B|-1--3--4--5--6--7--8--|
G|-2--4--5--6--7--8--11-|
D|-3--5--6--7--8--9--10-|
A|-3--5--6--7--8--9--10-|
E|-1--3--4--5--6--7--8--|

Chorus: Strum these 1/8 note chords. I'm waaay to lazy to tab out every chord that Doug 
It tells you what chords to transition to under the lyrics.
            [Your holding on, but letting go...]
   C                                      B
e|-8--------------------------------------7------------------------|
B|-8--------------------------------------7------------------------|
G|-9--------------------------------------8------------------------|
D|-10-------------------------------------9------------------------|
A|-10-------------------------------------9------------------------|
E|-8--------------------------------------8------------------------|

[I'm missing Cleveland and the snow]
   B                            A
e|-7----------------------------5---------------------------------|
B|-7----------------------------5---------------------------------|
G|-8----------------------------6---------------------------------|
D|-9----------------------------7---------------------------------|
A|-9----------------------------7---------------------------------|
E|-8----------------------------5---------------------------------|

[And lonely bars where everybody knows the truth and lets it be...]
   A                        G
e|-5------------------------3-------------------------------------|
B|-5------------------------3-------------------------------------|
G|-6------------------------4-------------------------------------|
D|-7------------------------5-------------------------------------|
A|-7------------------------5-------------------------------------|
E|-5------------------------3-------------------------------------|

   [Well i'm a dreamer, you don't care...]
   C                                 B
e|-8---------------------------------7-----------------------------|
B|-8---------------------------------7-----------------------------|
G|-9---------------------------------8-----------------------------|
D|-10--------------------------------9-----------------------------|
A|-10--------------------------------9-----------------------------|
E|-8---------------------------------7-----------------------------|

[At least it seems so when your there...]
   B                                  A
e|-7----------------------------------5----------------------------|
B|-7----------------------------------5----------------------------|
G|-8----------------------------------6----------------------------|
D|-9----------------------------------7----------------------------|
A|-9----------------------------------7----------------------------|
E|-7----------------------------------5----------------------------|

[But leaving earth is sometimes lonely when your feet are on the ground.]
   A                                  F                                A
e|-5----------------------------------1--------------------------------5-|
B|-5----------------------------------1--------------------------------5-|
G|-6----------------------------------2--------------------------------6-|
D|-7----------------------------------3--------------------------------7-|
A|-7----------------------------------3--------------------------------7-|
E|-5----------------------------------1--------------------------------5-|

Play Intro/Verse again (2x)

Play Pre-Chorus again, but instead of the ascending chord riff at the end, play this:

e|-8--7--6--5--4--3--0-|
B|---------------------|
G|---------------------|
D|---------------------|
A|---------------------|
E|---------------------|

Play Chorus again

Bridge
   E5              F5              C5                  ?
e|-----------------------------------------------------------------------|
B|-----------------------------------------------------------------------|
G|-----------------------------------------------------------------------|
D|-2---2---2---2---3---3---3---3---10---10---10---10---10---10---10---10-|
A|-2---2---2---2---3---3---3---3---10---10---10---10---10---10---10---10-|
E|-0---0---0---0---1---1---1---1---8----8----8----8----7----7----7----7--|

e|-----------------------------------------------------|
B|-----------------------------------------------------|
G|-----------------------------------------------------|
D|-2---2---2---2---3---3---3---3---12------------------|
A|-2---2---2---2---3---3---3---3---12------------------|
E|-0---0---0---0---1---1---1---1---10------------------|

Solo
e|---------------------------------10-8-7-6-5-3-0-|
B|---------3-------------5-6-5--------------------|
G|-5-5-5-5---5-4---7-7-7-------7------------------|
D|------------------------------------------------|
A|------------------------------------------------|
E|------------------------------------------------|

Play Chorus again

Ending
   C
e|-8--
B|-8--
G|-9--
D|-10-
A|-10-
E|-8--

Please rate and comment. It would be greatly appreciated ;)
Tap to rate this tab
# A B C D E F G H I J K L M N O P Q R S T U V W X Y Z