Song name
# A B C D E F G H I J K L M N O P Q R S T U V W X Y Z

Scott Weiland - Blind Confusion tab

Blind Confusion
Scott Weiland
"Happy in Golashes" 2008
Standard Tuning
Tabbed by: chronic_stp

KEY
~= vibrato
/= Slide up
\= slide down
.= palm mute

Fade in
e|------------------------------|
B|------------------------------|
G|------------------------------|
D|------------------------------|
A|-8~~~~------------------------|
E|------------------------------|

Intro
e|----------------------------------------------------------------|
B|-13-13-------15-15-------13-13--------15-15-------13-13---------|
G|-------12-12-------12-12-------12--12-------12-12-------12-12---|
D|----------------------------------------------------------------|
A|----------------------------------------------------------------|
E|----------------------------------------------------------------|
 |
 |
e|----------------------------------------------------------------|
B|----------------------------------------------------------------|
G|--------------------------------------------------3/5-----------|
D|--------------------------------------------------3/5-----------|
A|--------------------------------------------------1/3-----------|
E|----------------------------------------------------------------|

e|-------------13-13-12-12-10-10----------------------------------|
B|-15-15--------------------------13-13-------13-13-------15-15---|
G|-------12-12--------------------------12-12-------12-12---------|
D|----------------------------------------------------------------|
A|----------------------------------------------------------------|
E|----------------------------------------------------------------|

e|----------------------------------------------------------------------|
B|-------13-13-------15-15-------13-13-13-13----------------------------|
G|-12-12-------12-12-------12-12-------------12-12-12-12----------------|
D|-------------------------------------------------------14-14-14-14-15-|
A|----------------------------------------------------------------------|
E|----------------------------------------------------------------------|

e|-----------------------------------------------|
B|-----------------------------------------------|
G|-----------------------------------------------|
D|-7/8---7/8---7/8---7/8\7/8--10~~---------------|
A|-7/8---7/8---7/8---7/8\7/6--10~~---------------|
E|-5/6---5/6---5/6---5/6\5/6--8~~~---------------|
 |
 |
e|------------------------------------------------|
B|------------------------------------------------|
G|-----------------------------------5-7-5---5----|
D|-----------------------------------------7---7~-|
A|-------------------------------5/7--------------|
E|------------------------------------------------|

Verse
     [Now summers come and gone. The nights they seem so long.]
   A                        A                            A
e|------------------------------------------------------------|
B|-2------------------------2----------------------------2----|
G|-2------------------------2----------------------------2----|
D|-2------------------------2----------------------------2----|
A|-0------------------------0----------------------------0----|
E|------------------------------------------------------------|

[Erase the time of our erosion.  Now these days nothings built to last]
                   F            A                                A
e|-----------------1------------------------------------------------|
B|-----------------1------------2--------------------------------2--|
G|-----------------2------------2--------------------------------2--|
D|-----------------3------------2--------------------------------2--|
A|-----------------3------------0--------------------------------0--|
E|-----------------1------------------------------------------------|
 |
 |
e|------------------------------------------------------------------|
B|-----------------------0h2--4-4-4---13----15----13----15----13----|
G|---------------------------------------12----12----12----12----12-|
D|------------------------------------------------------------------|
A|------------------------------------------------------------------|
E|------------------------------------------------------------------|

[We're treading water fast! I'd rather float on mild explosions]
                    A                                    F
e|-------------------------------------------------------1------|
B|------------------2------------------------------------1------|
G|------------------2------------------------------------2------|
D|------------------2------------------------------------3------|
A|------------------0------------------------------------3------|
E|-------------------------------------------------------1------|
 |
 |
e|--------------------------------------------------------------|
B|-15----13----15----13----15----13----15-----13----------------|
G|----12----12----12----12----12----12----12------12------------|
D|----------------------------------------------------14--15----|
A|--------------------------------------------------------------|
E|--------------------------------------------------------------|

Pre-Chorus
[And the rain, rain, rain I'll remember. Yeah we talk about rain...]
e|----------------------------------------------------------------|
B|-13-13-------15-15-------13-13--------15-15-------13-13---------|
G|-------12-12-------12-12-------12--12-------12-12-------12-12---|
D|----------------------------------------------------------------|
A|----------------------------------------------------------------|
E|----------------------------------------------------------------|

[...rain, rain; the still December. Starts to wash away, pain...]
e|-------------13-13-12-12-10-10----------------------------------|
B|-15-15--------------------------13-13-------13-13-------15-15---|
G|-------12-12--------------------------12-12-------12-12---------|
D|----------------------------------------------------------------|
A|----------------------------------------------------------------|
E|----------------------------------------------------------------|

[...pain with all you rendered cold. Erase the summer of our corrosion]
e|----------------------------------------------------------------------|
B|-------13-13-------15-15-------13-13-13-13----------------------------|
G|-12-12-------12-12-------12-12-------------12-12-12-12----------------|
D|-------------------------------------------------------14-14-14-14-15-|
A|----------------------------------------------------------------------|
E|----------------------------------------------------------------------|

Chorus
[We told her that you loved her... Blind Confusion]
            3 times
e|---------------------------|--------------------|
B|---------------------------|--------------------|
G|---------------------------|--------------------|
D|-7/8---7/8---7/8---7/8\7/8-|-10~~---------------|
A|-7/8---7/8---7/8---7/8\7/6-|-10~~---------------|
E|-5/6---5/6---5/6---5/6\5/6-|-8~~~---------------|

[We told her that you loved her... Mild explosion]
            3 times
e|---------------------------|--------------------|
B|---------------------------|--------------------|
G|---------------------------|--------------------|
D|-7/8---7/8---7/8---7/8\7/8-|-10~~---------------|
A|-7/8---7/8---7/8---7/8\7/6-|-10~~---------------|
E|-5/6---5/6---5/6---5/6\5/6-|-8~~~---------------|

Verse
     [You blasted through the walls. The shattered mirror saw.]
   A                           A                             A
e|-------------------------------------------------------------|
B|-2---------------------------2-----------------------------2-|
G|-2---------------------------2-----------------------------2-|
D|-2---------------------------2-----------------------------2-|
A|-0---------------------------0-----------------------------0-|
E|-------------------------------------------------------------|

[The tick and tock of your explosion. I see the red light coming fast]
                       F              A                           A
e|---------------------1--------------------------------------------|
B|---------------------1--------------2---------------------------2-|
G|---------------------2--------------2---------------------------2-|
D|---------------------3--------------2---------------------------2-|
A|---------------------3--------------0---------------------------0-|
E|---------------------1--------------------------------------------|
 |
 |
e|------------------------------------------------------------------|
B|------------------------------------------13----15----13----15----|
G|-------------------------5-7-5---5-----12----12----12----12----12-|
D|-------------------------------7----------------------------------|
A|---------------------5/7------------------------------------------|
E|------------------------------------------------------------------|

[I know that sound too well. I hope it ends your vile illusions]
                    A                              F
e|-------------------------------------------------1------------|
B|------------------2------------------------------1------------|
G|------------------2------------------------------2------------|
D|------------------2------------------------------3------------|
A|------------------0------------------------------3------------|
E|-------------------------------------------------1------------|
 |
 |
e|--------------------------------------------------------------|
B|-15----13----15----13----15----13----15-----13----------------|
G|----12----12----12----12----12----12----12------12------------|
D|----------------------------------------------------14--15----|
A|--------------------------------------------------------------|
E|--------------------------------------------------------------|

Pre-Chorus (Play twice with different lyrics)
[And the rain, rain, rain I'll remember. Yeah we talk about rain...]
e|----------------------------------------------------------------|
B|-13-13-------15-15-------13-13--------15-15-------13-13---------|
G|-------12-12-------12-12-------12--12-------12-12-------12-12---|
D|----------------------------------------------------------------|
A|----------------------------------------------------------------|
E|----------------------------------------------------------------|

[...rain, rain; the still December. Starts to wash away, pain...]
e|-------------13-13-12-12-10-10----------------------------------|
B|-15-15--------------------------13-13-------13-13-------15-15---|
G|-------12-12--------------------------12-12-------12-12---------|
D|----------------------------------------------------------------|
A|----------------------------------------------------------------|
E|----------------------------------------------------------------|

[...pain with all you rendered cold. Erase the summer of our corrosion]
e|----------------------------------------------------------------------|
B|-------13-13-------15-15-------13-13-13-13----------------------------|
G|-12-12-------12-12-------12-12-------------12-12-12-12----------------|
D|-------------------------------------------------------14-14-14-14-15-|
A|----------------------------------------------------------------------|
E|----------------------------------------------------------------------|

Bridge
e|-----------------------------|
B|-----------------------------|
G|-----------------------------|
D|-----------------------------|
A|-0-0-0-0-0-0-0-3-0-0-3-0-0-0-|
E|-----------------------------|
   . . . . . . .   . .   . . .

Chorus
[We told her that you loved her... Blind Confusion]
            3 times
e|---------------------------|--------------------|
B|---------------------------|--------------------|
G|---------------------------|--------------------|
D|-7/8---7/8---7/8---7/8\7/8-|-10~~---------------|
A|-7/8---7/8---7/8---7/8\7/6-|-10~~---------------|
E|-5/6---5/6---5/6---5/6\5/6-|-8~~~---------------|

[We told her that you loved her... Mild explosion]
            3 times
e|---------------------------|--------------------|
B|---------------------------|--------------------|
G|---------------------------|--------------------|
D|-7/8---7/8---7/8---7/8\7/8-|-10~~---------------|
A|-7/8---7/8---7/8---7/8\7/6-|-10~~---------------|
E|-5/6---5/6---5/6---5/6\5/6-|-8~~~---------------|

Ending
e|-------------------------------------------------------|
B|-------------------------------------------------------|
G|-0-0-0-0-0-0-0-0-0-0-0-0-0-0-0-0-0-0-0-0-0-0-0-0-0-0-0-|
D|-------------------------------------------------------|
A|-------------------------------------------------------|
E|-------------------------------------------------------|

[The nights have been too long. Your wines a bit too strong.]
e|-----------------------------------------------------------|
B|-----------------------------------------------------------|
G|-0-0-2-2-3-3-0-0-0-0-0-0-0-0-0-0-0-0-0-0-0-0-0-2-2-3-3-0-0-|
D|-----------------------------------------------------------|
A|-----------------------------------------------------------|
E|-----------------------------------------------------------|

[To while away your mass confusion. Her eyes are way too strong]
e|--------------------------------------------------------------|
B|-------------1-1-1-1-1-1-1-1-1-1-1----------------------------|
G|-0-0-2-2-3-3------------------------0-0-0-0-0-0-0-2-2-3-3-0-0-|
D|--------------------------------------------------------------|
A|--------------------------------------------------------------|
E|--------------------------------------------------------------|

[The shades are dark enough. Wide awake today confusion.]
e|-------------------------------------------------------------|
B|-----------------------------------------1-1-1-1-1-1-1-1-1-1-|
G|-0-0-0-0-0-0-0-2-2-3-3-0-0-0-0-0-2-2-3-3---------------------|
D|-------------------------------------------------------------|
A|-------------------------------------------------------------|
E|-------------------------------------------------------------|

Repeat chorus, then Doug does some wacky stuff on guitar.

Please rate and comment. It would be greatly appreciated ;)
Tap to rate this tab
# A B C D E F G H I J K L M N O P Q R S T U V W X Y Z