Song name
# A B C D E F G H I J K L M N O P Q R S T U V W X Y Z

Scott Weiland - Killing Me Sweetly tab

Song:       Killing Me Sweetly
Artist:     Scott Weiland
Album:      "Happy" In Golashes
Tuning:     Standard 
Tabbed by:  jjhand (thanks to chronic_stp for some help)


I didn't do the intro electric part(fairly easy to figure out), but 
everything else is here. Please rate or comment. I might add the other 
part later if I have time. Thanks!

Intro

   Guitar 1
e|-----------|-------------|------------|---------|------------|
B|-5----5/7--|-4---4-4-4-4-|-----8--7-5-|-5-------|---8--7--5--|
G|-----------|-----2-4-4-2-|------------|-5-------|------------|
D|-5----5/7--|-4-----------|--7/9---7-5-|-7---/10~|-/9---7--5--|
A|-----------|-------------|------------|---------|------------|
E|-----------|-------------|------------|---------|------------|
 |
 | Guitar 2
e|-----------|-------------|------------|----------|-----------|
B|-----------|-------------|------------|------0h1-|-1---0h1---|
G|-----------|-------------|--------2-0-|-2--------|-2---2-----|
D|-2----2-2--|-1---1-1-1-1-|------------|-2---2----|-2---------|
A|-3----3-3--|-2---2-2-2-2-|-2----------|-0--------|-0---------|
E|-----------|-------------|-0----------|----------|-----------|
   C         B7              Em           Am                    


   Intro Ending - 
   Gtr 1
e|-----------|---------------|-------------------5-5-|
B|-7---7-7-8-|---8--7--5---4-|-----4-4----4-4----4-4-|
G|-----------|---------------|-----2-2----2-2--------|
D|-7---7-7-7-|-/9---7--5---4-|---4------4------4-----|
A|-----------|---------------|-----------------------|
E|-----------|---------------|-----------------------|
 |
 | Gtr 2
e|-----------|---------------|-----------------------|
B|-3--3------|-0----1p0------|-----4------4------4-4-|
G|-2--0h2----|-2----2------2-|-----2------2------2-2-|
D|-0--0------|-2----2------4-|-----4------4------4-4-|
A|-----------|-0----0------2-|-----2------2------2-2-|
E|-----------|---------------|-----------------------|
   D           A2   Am    B7



Verse Riff

   play similarly 4x
e|------------------------|-------------------------|
B|------0--0-----3--3--3--|-1-----1-1-----1---1p0-0-|
G|------0--0-----0--0--0--|-0-----0-0-----0---0---0-|
D|-2----2--2---4----4--4--|-2---2------2------2-----|
A|-2----------------------|-3---3------3----3-------|
E|-0----------------------|-------------------------|

"Oh wonderful find, unlike no one before her.
The world bowed before her. Do you know what I mean?
I think I fell from the sky when she told me she needs me.
We were so happy like a couple on the silver screen."



Prechorus

e|-0----0-0--------------|------------------5-5--|
B|-0----0-0--4--------4--|-------------4-4--4-4--|
G|-0----0-0--2--------2--|-2--0--2-0---2-4-------|
D|-2----2-2--4------4----|-2--2--2-2-------------|
A|-----------2----2------|-----------------------|
E|-----------------------|-----------------------|
 |
 |
e|-0----0-0--------------|-0--0--0-0--------5-5--|
B|-0----0-0--4--------4--|-5--3--5-5---4----4-4--|
G|-0----0-0--2--------2--|-------------2---------|
D|-2----2-2--4------4----|-----------------------|
A|-----------2----2------|-----------------------|
E|-----------------------|-----------------------|
  "Please don't change.  I'll never be the same."



Chorus - Part 1 (intro with different ending)


   Guitar 1
e|-----------|-------------|------------|---------|------------|
B|-5----5/7--|-4---4-4-4-4-|-----8--7-5-|-5-------|---8--7--5--|
G|-----------|-----2-4-4-2-|------------|-5-------|------------|
D|-5----5/7--|-4-----------|--7/9---7-5-|-7---/10~|-/9---7--5--|
A|-----------|-------------|------------|---------|------------|
E|-----------|-------------|------------|---------|------------|
 |
 | Guitar 2
e|-----------|-------------|------------|----------|-----------|
B|-----------|-------------|------------|------0h1-|-1---0h1---|
G|-----------|-------------|--------2-0-|-2--------|-2---2-----|
D|-2----2-2--|-1---1-1-1-1-|------------|-2---2----|-2---------|
A|-3----3-3--|-2---2-2-2-2-|-2----------|-0--------|-0---------|
E|-----------|-------------|-0----------|----------|-----------|
      "Now go to sleep gently,  you're killing me sweetly. Cause I can"

   Gtr 1
e|------------|---------------|-------------|-3----------|
B|-7----7-7---|---8--7--5---3-|-(3)---------|-3----------|
G|------------|---------------|-------------|-4----------|
D|-7----5-7---|-/9---7--5---5-|-(5)---------|------------|
A|------------|---------------|-------------|------------|
E|------------|---------------|-------------|------------|
 |
 | Gtr 2
e|------------|---------------|-------------|------------|
B|-3--3-----3-|-0----1p0------|-----1---0---|---1---1-0--|
G|-2--0h2---2-|-0----0--------|-----0---0---|---0---0-0--|
D|-0--0-----0-|---------------|-------------|------------|
A|------------|---------------|-------------|------------|
E|------------|---------------|-------------|------------|
 "find a way    to make you believe"




Play Intro for part 2 of chorus



Verse 2 - Same as Verse 1

Lyrics:

"Took a trip outta town. We went south of the border.
Somebody told us where we could run away.
One morning you wake up and no one's beside you.
No one to guide you, do you know what I mean?"





Play Prechorus Again

Lyrics:  "Vicious games will lead to bitter pain."





Play Chorus Again




Bridge

   Guitar 1
e|------3----|---0---0-0-0-0-|-------------|-----0----------|
B|-5----5-5--|---1---0-1-3-1-|---3--1-1--1-|-----0--1-1-0-1-|
G|-5----5-5--|---2---2-2-2-2-|---0--0-0--0-|-----0--0-0-0-0-|
D|-5------5--|---------------|---0---------|----------------|
A|-3------3--|---------------|-------------|----------------|
E|-----------|---------------|-------------|----------------|
 |
 | Guitar 2
e|-----------|---------------|-------------|----------------|
B|-----------|-------0-1-----|---0--0-0----|---0----1-1-0-1-|
G|-----------|-------0-0-----|---0--2-2----|---0----0-0-0-0-|
D|-2----2-2--|---2-----------|-------------|----------------|
A|-3----3-3--|---0-----------|-------------|----------------|
E|-----------|---------------|-------------|----------------|
 "You are the  apple  of  my  life."


  bridge ending
e|------3----|-------2-2-----|----0-0------0-|---0-0-0-0---|
B|-5----5-5--|---3---3-3---3-|----0-0------0-|---0-0-0-0---|
G|-5----5-5--|---2---2-2---2-|----1-1------1-|---2-4-2-1---|
D|-5------5--|---0-----------|---------------|-------------|
A|-3------3--|---------------|---------------|-------------|
E|-----------|---------------|---------------|-------------|
 |
 | Guitar 2
e|-----------|---------------|---------------|-------------|
B|-----------|---------------|---------------|-------------|
G|-0----0-0--|---------------|---------------|---2-1-------|
D|-2----2-2--|---7---5-7-----|----2-2------2-|---2-2-------|
A|-3----3-3--|---5---5-5-----|----2-2------2-|-------------|
E|-----------|---------------|----0-0------0-|-------------|
  "You are the sun that gave me light."




Play Chorus Again


Ending - Violin playing & fade out





KEY
/ - Slide
h - Hammer-on
p - pull-off
~ - Vibrato
Tap to rate this tab
# A B C D E F G H I J K L M N O P Q R S T U V W X Y Z