Song name
# A B C D E F G H I J K L M N O P Q R S T U V W X Y Z

Scotty Dont - Everythings Alright tab

ARTIST: Scotty Don't
SONG:   Everything's Alright



Intro Part 2:

e|--10-9-7----------------------10-9-7---------------------------------|
B|----------10-7-5----5-7-5------------10-7-5---5-7-5------------------|
G|------------------7-------------------------7-------7-6--------------|
D|---------------------------------------------------------------------|
A|---------------------------------------------------------------------|
E|---------------------------------------------------------------------|

e|--10-9-7----------------------10-9-7---------------------------------|
B|----------10-7-5----5-7-5------------10-7-5---5-7-5------------------|
G|------------------7-------------------------7-------7-6--4---4h6-2---|
D|---------------------------------------------------------------------|
A|---------------------------------------------------------------------|
E|---------------------------------------------------------------------|

B                                  A#            A
I'm at the end of the middle snakin' out of the back door
D      E                                        B
At the beginning that we called the finish line yesterday

B                                                   A#    A
A new day like a fresh coat of paint, just a haze on the old mistakes
D        E    
But it's good enough to scrape by and dodge a little decay

I need some electricity to fill the lightbulb 
that's been dimming inside my brain
Cause day out day in everyone's throwng me 
excuses and it's gonna drive me insane

Every time I add it up oh yeah I catch somebody subtracting me
Getting in a bit of trouble to alleviate the struggle I'm a victim of a third degree

Gotta get me high and dry
Under that big blue sky
With a slow down circle and a body of a goddess
That'll tell me everything's alright

Gotta get me high and dry
Under that big blue sky
With a slow down circle and a body of a goddess
That'll tell me everything's alright
Alright, Alright



The same chords are played throughout the song.

Have Fun!

BTW this is my first tab
Tap to rate this tab
# A B C D E F G H I J K L M N O P Q R S T U V W X Y Z