Song name
# A B C D E F G H I J K L M N O P Q R S T U V W X Y Z

Scotty Mccarty - Dive Resurface Breathe tab

Standard Tuning - Capo 3 - myspace.com/scottymccartymusic

Order: 
Intro
Verse
Chorus
Verse
Chorus
Intro/Outro

INTRO/OUTRO

e|------0---------0---------0---------0---------0---2/3-2|
B|3-------3-3-------3-3-------3-3-------3-3-------3------|
G|----0---------0---------0---------0---------0----------|
D|--0---------0---------0---------0---------0------------|
A|--------------------3---------2---------0--------------|
E|3---------2--------------------------------------------|

VERSE

e|-----------------------------------------------------------|
B|3-----3-----3-----3-----3-----3-----3-----3-----3-----3----|
G|--0-----0-----0-----0-----0-----0-----0-----0-----0-----0--|
D|----0-----0-----0-----0-----0-----0-----0-----0-----0-----0|
A|------------------------3-----3-----2-----2-----0-----0----|
E|3-----3-----2-----2----------------------------------------|

CHORUS (listen to song for strumming pattern)

e|3--3--3--3|
B|3--3--3--3|
G|0--2--0--0|
D|2--0--0--0|
A|3--0--2--3|
E|0--2--3--3|

--This song is by one of my good friends, Scott Allen McCarty.
You should really give his stuff a listen :]
Tap to rate this tab
# A B C D E F G H I J K L M N O P Q R S T U V W X Y Z