Song name
# A B C D E F G H I J K L M N O P Q R S T U V W X Y Z

Scotty Mccreery - I Love You This Big tab

This is a tab of the intro and the first verse. All the way up to the chorus. Im proud 
of this tab and i think its sounds pretty close to the song. Well feel free to leave a 
comment, rate it, or friend request me. Hope you like this tab.

Intro:
e----5-------5--------5---------|
b---3--3----3--3-----3--3-------|
g--2----2--2----2---2----2------|
d-0------0-------0-2------2-----|
a-------------------------------|
E-------------------------------|


Verse:

I know im still young,
e-2---------------------|
b-3---------------------|
g-2---------------------|
d-0---------------------|
a-----------------------|
E-----------------------|

But i know how I feel,
e-2---------------------|
b-3---------------------|
g-4---------------------|
d-4---------------------|
a-2---------------------|
E-2---------------------|

I might not have to much experiance,
e-3------------------------------------|
b-3------------------------------------|
g-0--------------------------------0-4-|
d-0-------------------------------2----|
a-2------------------------------------|
E-3------------------------------------|

But i know when love is real,
e-0--------------------------------------|
b-2--------------------------------------|
g-2------------------------------------0-|
d-2-------------------------------2-2-2--|
a-0--------------------------------------|
E-0--------------------------------------|

By the way my heart starts pounding,
e-2------------------------------------|
b-3------------------------------------|
g-2------------------------------------|
d-0-------------------------------0-0--|
a------------------------------------4-|
E--------------------------------------|

When i look into your eyes,
e-3-------------------------------------|
b-3-------------------------------------|
g-0-------------------------------------|
d-0-------------------------------------|
a-2-------------------------------2-2-0-|
E-3-------------------------------------|

I might look a little silly,
e---------------------------------|
b---------------------------------|
g---------------------------------|
d---------------------------------|
a---------------------------------|
E-3-------------------------------|

Standin' with my arms stretched open wide
e-0----------------3----------------------0-|
b-0----------------3----------------------2-|
g-0----------------0----------------------2-|
d-2----------------0----------------------2-|
a-2----------------2----------------------0-|
E-0----------------3----------------------0-|

http://www.scotty-mccreery.net/
Tap to rate this tab
 
# A B C D E F G H I J K L M N O P Q R S T U V W X Y Z