Song name
# A B C D E F G H I J K L M N O P Q R S T U V W X Y Z

Scout Niblett - Kidnapped By Neptune tab

Help us improve GuitareTab! Take a short survey!
Artist: Scout Niblett
Album: Kidnapped by Neptune
Song: Kidnapped by Neptune

Tab typed by: Xander van Trigt (xandyxandicus@hotmail.com)

standard tuning

*lyrics may not be correct*

"sho sho sho sho-pa" x3  "sho sho sho sho"

repeat with drums

"Wher've you been, where wher've you been" x8   "You crazy girl"

e -------------------------------------------------------------------------|
B -------------------------------------------------------------------------|
G -------------------------------------------------------------------------|
D -------------------------------------------------------------------------|
A -5---5---5---5--3---5---5---5---5--3---5---5---5---5--3---5---5---5---5--|
E -------------------------------------------------------------------------|
  sho sho sho sho-pa sho sho sho sho-pa sho sho sho sho-pa sho sho sho sho

e ------------------------------------------|
B ------------------------------------------|
G ------------------------------------------|
D ------------------------------------------|  x2
A -5~-~-~-~-~-~-~-~-~-~-~-~-~-~-~-~-~-~-~-~-|
E ------------------------------------------|
   wher've you been, where wher've you been

e --------------------------------------------|
B --------------------------------------------|
G --------------------------------------------|
D --------------------------------------------|  x2
A -8------------------------------------------|
E ---4~-~-~-~-~-~-~-~-~-~-~-~-~-~-~-~-~-~-~-~-|
     wher've you been, where wher've you been

e ------------------------------------------------------------------------------------|
B ------------------------------------------------------------------------------------|
G ------------------------------------------------------------------------------------|
D ------------------------------------------------------------------------------------|
A ------------------------------------------------------------------------------------|
E -6~-~-~-~-~-~-~-~-~-~-~-~-~-~-~-~-~-~-~-~--2~-~-~-~-~-~-~-~-~-~-~-~-~-~-~-~-~-~-~-~-|
   wher've you been, where wher've you been  wher've you been, where wher've you been

e -----------------------------------------------------|
B -----------------------------------------------------|
G -----------------------------------------------------|
D ------------------------------------------ x2--------|       Repeat
A -5~-~-~-~-~-~-~-~-~-~-~-~-~-~-~-~-~-~-~-~-----\------|
E -----------------------------------------------------|
   wher've you been, where wher've you been

"you crazy girl"

e -------------------     e -------------------     e ----|
B -------------------     B -------------------     B ----|
G -------------------     G -------------------     G ----|
D ------------------- x5  D ------------------- x5  D ----|
A -5---5---5---5--3--     A -5---5---5---5--3--     A -5--|
E -------------------     E -------------------     E ----|
  sho sho sho sho-pa        sho sho sho sho-pa        sho
                           "I've been kidnapped by neptune"

repeat "wher've you been" part with this guitar part on the second time:

e ----------------------------------------------|
B ----------------------------------------------|
G -----------------------------10---------------|
D -12---12---12---12--12-10-12----12-10-12---12-|  x4
A ----------------------------------------------|
E ----------------------------------------------|

"you crazy girl"

e -------------------     e -------------------     e ----|
B -------------------     B -------------------     B ----|
G -------------------     G -------------------     G ----|
D ------------------- x5  D ------------------- x5  D ----|
A -5---5---5---5--3--     A -5---5---5---5--3--     A -5--|
E -------------------     E -------------------     E ----|
  sho sho sho sho-pa        sho sho sho sho-pa        sho
                           "I've been kidnapped by nuptune"

Open to any corrections or comments.
Related for Kidnapped By Neptune tab