Song name
# A B C D E F G H I J K L M N O P Q R S T U V W X Y Z

Scout Niblett - Handsome tab

Artist: Scout Niblett
Album: Kidnapped by Neptune
Song: Handsome

Tab typed by: Xander van Trigt (xandyxandicus@hotmail.com)

standard tuning

e --------------------------------|
B --------------------------------|
G --------------------------------|  x4
D -14\12-12----10101010/12-12-----|
A -14\12-12----10101010/12-12-----|
E -12\10-10-pm-8-8-8-8-/10-10~pm--|

e ---------------------|
B ---------------------|
G ---------------------|  x4
D -5-5-5/7-7---14-\-5--|
A -5-5-5/7-7---14-\-5--|
E -3-3-3/5-5-0-12-\-3--|

e -----------------------------------------------|
B -----------------------------------------------|
G -----------------------------------------------|  x2
D -14\12-12----10101010/12-12-----------12-b-r---|
A -14\12-12----10101010/12-12--------------------|
E -12\10-10-pm-8-8-8-8-/10-10~pm-----------------|

e --------------------------------|
B --------------------------------|
G --------------------------------|  x2
D -14\12-12----10101010/12-12-----|
A -14\12-12----10101010/12-12-----|
E -12\10-10-pm-8-8-8-8-/10-10~pm--|

e ---------------------------|
B ---------------------------|
G ---------------------------|
D -5-5-5/7-7---14------------|
A -5-5-5/7-7---14------------|
E -3-3-3/5-5-0-12-~-~-~-~-~--|

e -------------------------------------|
B -------------------------------------|
G -------------------------------------|  x3
D -------------------------------------|
A -------------------------------------|
E -0--0--3-0-0pm----0--0--3-5/7--7--7--|

e ---------------------------------------------|
B ---------------------------------------------|
G ---------------------------------------------|
D ---------------------------------------------|
A ---------------------------------------------|
E -0--0--3-0-0pm----0--0--3-5/7--7--7--7--7\3--|

e -------------------|
B -------------------|
G -------------------|
D -14b--14--14--14r--|
A -14b--14--14--14r--|
E -12b--12--12--12r--|

e ----------------------------------------|
B ----------------------------------------|
G ----------------------------------------|
D -14\12-12----10101010/12-12-----12-b-r--|
A -14\12-12----10101010/12-12-------------|
E -12\10-10-pm-8-8-8-8-/10-10~pm----------|

e ------------------------------------------|
B ------------------------------------------|
G ------------------------------------------|
D -14\12-12----10101010/12-12---14p12h14pm--|
A -14\12-12----10101010/12-12---------------|
E -12\10-10-pm-8-8-8-8-/10-10~pm------------|

e --------------------------------|
B --------------------------------|
G --------------------------------|  x2
D -14\12-12----10101010/12-12-----|
A -14\12-12----10101010/12-12-----|
E -12\10-10-pm-8-8-8-8-/10-10~pm--|

e ---------------------|
B ---------------------|
G ---------------------|  x3
D -5-5-5/7-7---14-\-5--|
A -5-5-5/7-7---14-\-5--|
E -3-3-3/5-5-0-12-\-3--|

e -----------------------------------------------------|
B -----------------------------------------------------|
G -----------------------------------------------------|
D -5-5-5/7-7---14-~-~-~-~-b-~-r-~-b-~-r-~-b-~-r-~-b-~--|
A -5-5-5/7-7---14-~-~-~-~-b-~-r-~-b-~-r-~-b-~-r-~-b-~--|
E -3-3-3/5-5-0-12-~-~-~-~-b-~-r-~-b-~-r-~-b-~-r-~-b-~--|
Tap to rate this tab
# A B C D E F G H I J K L M N O P Q R S T U V W X Y Z