Song name
# A B C D E F G H I J K L M N O P Q R S T U V W X Y Z

Scout Niblett - The Calcination Of Scout Niblett tab

Artist: Scout Niblett
Album: The Calcination of Scout Niblett
Song: The Calcination of Scout Niblett

Tab typed by: Xander van Trigt (xandyxandicus@hotmail.com)

standard tuning

Riff 1:
    e ------------------------------------------------------|
    B ------------------------------------------------------|
    G -6-------------------------6-6-66---------6-66-66---6-|
    D -6---4-7-9-9br---9br-9-9---6-6-66---------6-66-66---6-| repeat
    A -4pm-4-7-9-9br---9br-9-9---4-4-44-0-2/5-4-4-44-44-0-4-|
    E -----2-5-7-7br-7-7br-7-7-0----------------------------|
                                 d d ud         d ud dd

welcome   to my self made  sweatbox
   this   is where I take it  all off
  sweat   I got a sweatied  out
   cook   I'll cook those monsters  out

Riff 2:
e --------------------------------------------------------------------|
B --------------------------------------------------------------------|
G -9-9-6/11-11-11-11-----------------------6-6-66---------6-66-66---6-|
D -9-9-6/11-11-11-11-4-7-9-9br---9br-9-9---6-6-66---------6-66-66---6-| repeat
A -7-7-4/9--9--9--9--4-7-9-9br---9br-9-9---4-4-44-0-2/5-4-4-44-44-0-4-|
E -------------------2-5-7-7br-7-7br-7-7-0----------------------------|
                                           d d ud         d ud dd

 because I           am getting out   of   here
  until my           until my soul        apears
      yeah                           oh oh oh
      yeah                           oh oh oh

Riff 1:
    e ------------------------------------------------------|
    B ------------------------------------------------------|
    G -6-------------------------6-6-66---------6-66-66---6-|
    D -6---4-7-9-9br---9br-9-9---6-6-66---------6-66-66---6-| repeat
    A -4pm-4-7-9-9br---9br-9-9---4-4-44-0-2/5-4-4-44-44-0-4-|
    E -----2-5-7-7br-7-7br-7-7-0----------------------------|
                                 d d ud         d ud dd

    got   why don't you start using me
   play   me how you want to take me

Riff 2:
e --------------------------------------------------------------------|
B --------------------------------------------------------------------|
G -9-9-6/11-11-11-11-----------------------6-6-66---------6-66-66---6-|
D -9-9-6/11-11-11-11-4-7-9-9br---9br-9-9---6-6-66---------6-66-66---6-| repeat
A -7-7-4/9--9--9--9--4-7-9-9br---9br-9-9---4-4-44-0-2/5-4-4-44-44-0-4-|
E -------------------2-5-7-7br-7-7br-7-7-0----------------------------|
                                           d d ud         d ud dd
     and take        take off this play    face
help me surrender    to the truth     of   me
      yeah                           oh oh oh

e -----------------------------------------------------------------------------------|
B -----------------------------------------------------------------------------------|
G -9-9-6/11-11-11-11-----------------------6-6-66---------6-6-6---------6-66---------|
D -9-9-6/11-11-11-11-4-7-9-9br---9br-9-9---6-6-66---------6-6-6---------6-66---------|
A -7-7-4/9--9--9--9--4-7-9-9br---9br-9-9---4-4-44-0-2/5-4-4-4-4-0-2/5-4-4-44-0-2/5-4-|
E -------------------2-5-7-7br-7-7br-7-7-0-------------------------------------------|
                                           d d ud         d d d         d ud

      yeah                           oh oh oh


*Open to any corrections or comments.
Tap to rate this tab
# A B C D E F G H I J K L M N O P Q R S T U V W X Y Z