Song name
# A B C D E F G H I J K L M N O P Q R S T U V W X Y Z

Scout Niblett - Miss My Lion tab

 -------------------------------------------------------------------------------
     Miss My Lion by Scout Niblett
-------------------------------------------------------------------------------

From "Sweet Heart Fever" (2001)


Tabbed by: Scott H.

Tuning: EADGBE


Intro:

e|-------------------------------------------------------------------------|
B|--0-0-0-0-0--0-0-0-0--0-0-0-0-0--4--0-0-0-0-0--0-0-0-0--0-0-0-0-0--4-----|
G|--3-3-3-3-3--4-4-4-4--0-0-0-0-0--0--3-3-3-3-3--4-4-4-4--0-0-0-0-0--0-----|
D|--0-0-0-0-0--0-0-0-0--0-0-0-0-0--0--0-0-0-0-0--0-0-0-0--0-0-0-0-0--0-----|
A|-------------------------------------------------------------------------|
E|-------------------------------------------------------------------------|

---0-0-0-0-0--0-0-0-0--0-0-0-0-0--4-4-4-4-4-4-4-4-4-4-4-4-4-4-4-4-3-3-3-3--|
---3-3-3-3-3--4-4-4-4--0-0-0-0-0--0-0-0-0-0-0-0-0-0-0-0-0-0-0-0-0-0-0-0-0--|
---0-0-0-0-0--0-0-0-0--0-0-0-0-0--0-0-0-0-0-0-0-0-0-0-0-0-0-0-0-0-0-0-0-0--|
---------------------------------------------------------------------------|
---------------------------------------------------------------------------|
---------------------------------------------------------------------------|

e|----------------------------------------------------------------------|
B|--3-3-4-0------------0-0-0-0-------------3-3-4-0-----------0-0-0-0----|
G|--0-0-0-0---0-0-0-0--3-3-4p0----0-0-0-0--0-0-0-0--0-0-0-0--3-3-4p0----|
D|------------0-0-0-0-------------0-0-0-0-----------0-0-0-0-------------|
A|------------0-0-0-0-------------0-0-0-0-----------0-0-0-0-------------|
E|----------------------------------------------------------------------|



Verse 1:

e|--7-7-7-7-7-7-7-7-7---3-3--5-5---------------|
B|--7-7-7-7-7-7-7-7-7---3-3--5-5---------------|
G|--7-7-7-7-7-7-7-7-7---3-3--5-5---------------|
D|--9-9-9-9-9-9-9-9-9---5-5--7-7---2-----------|
A|--9-9-9-9-9-9-9-9-9---5-5--7-7---2-----------|
E|--7-7-7-7-7-7-7-7-7---3-3--5-5---0-----------|

    When we get home
    It'll be like a party
    He's learned to move
    Real slowly

    See how he moves
    Sunlit and playful
    We have it all
    But I miss my lion

    He's already there
    Waiting to greet me


Verse 2:

e|--7-7-7-7-7-7-7-7-7---10-10/12--------|
B|--7-7-7-7-7-7-7-7-7---10-10/12--------|
G|--7-7-7-7-7-7-7-7-7---10-10/12--------|
D|--9-9-9-9-9-9-9-9-9---12-10/14--------|
A|--9-9-9-9-9-9-9-9-9---12-12/14--------|
E|--7-7-7-7-7-7-7-7-7---10-10/12--------|

    When you drive
    There's no fooling me
    Those roads invited me
    When you drive
    There's no fooling me
    Those roads invited me


(Resume Verse 1)

    When we get home
    It'll be like a party
    He's learned to move
    Real slowly

    He's already here
    Waiting to greet me


(Play second part of the Intro piece x 2)
Tap to rate this tab
# A B C D E F G H I J K L M N O P Q R S T U V W X Y Z