Song name
# A B C D E F G H I J K L M N O P Q R S T U V W X Y Z

Scout Niblett - Kiss tab

-------------------------------------------------------------------------------
                             Kiss by Scout Niblett
-------------------------------------------------------------------------------

Tabbed by: Scott H.

Tuning: EADGBE


Intro
        
         E           E            E           E
e|---------------------------------------------------------------|
B|---------------------------------------------------------------|
G|-------3-----------3------------3-----------3------------------|
D|-----2---2-------2---2--------2---2-------2----2---------------|
A|---2-------2---2-------2---2--------2---2--------2-------------|
E|-0-----------0----------0-------------0------------0-----------|



Verse/Chorus

         E         B5 C5 C#5     Am5     E
e|----------------------------------------------------|
B|----------------------------------------------------|
G|-------3---------44--5--6---6b-6b-6b---1------------|
D|-----2---2-------44--5--6---7b-7b-7b---2------------|
A|---2-------2-----22--3--4---7b-7b-7b---2------------|
E|-0-----------0--------------5b-5b-5b----------------|



Lyrics:

A kiss could've killed me
If it were not for the rain
A kiss could've killed me
Baby if it were not for the rain

And I had a feeling it was coming on
And I felt it coming
For so long
If I'm to be the fool
Then so it be

This fool can die now
With a heart that's soaked
How
How had it coming
For so long

And darling take my hand
And lead me through the door
Let's kidnap each other
And start singing our song

My heart is charged now
Oh, it's dancing in my chest
And I fly when I walk now
From the spell in that kiss

Cause I ...

It could've
It could've killed me
It could've killed me
If it were not for the rain

Oh darling let me dream
Cause somewhere inside me
I have been waiting
So patiently
For you

So don't you break
Don't break my dream
Don't break my dream

Let the rain exalt us
As the night draws in
Winds howl around us
As we begin
What a way to start a fire
Broken with the break of day

A kiss could have killed me
If it were not for rain

And I have a feeling it's coming on
And I felt it coming on
for so long

And oh it could've
It could've killed me
It could've killed me
If it were not for the rain
Tap to rate this tab
 
# A B C D E F G H I J K L M N O P Q R S T U V W X Y Z