Song name
# A B C D E F G H I J K L M N O P Q R S T U V W X Y Z

Scout Niblett - Lullaby For Scout In 10 Years tab

-------------------------------------------------------------------------------
                             Lullaby for Scout in 10 Years by Scout Niblett
-------------------------------------------------------------------------------
Tabbed by: Scott


From "Kidnapped by Neptune" (2005). Not 100% sure about the Verse I section, but she's 
basically playing the same notes throughout the whole song. For the Verse II section 
where chords are played, it's heavily, heavily distorted.

Tuning: EADGBE


Intro Riff (bass guitar)

e|-----------------------------------------------------------------|
B|-----------------------------------------------------------------|
G|-----------------------------------------------------------------|
D|-----------------------------------------------------------------|
A|-----------------------------------------------------------------|
E|-10--10-10-10--12-12--6-666--8--8---7--777--10-10--3--3-3-4-1----|

    Oh, whoa, whoa
    Whoa, whoa


Verse I

e|----------------------------------------------------------------|
B|-10--10-10-10--12-12--6-666--8--8---7--777--10-10--3--3-3-4-1---|
G|-x---x--x--x---x--x---x-xxx--x--x---x--xxx--x--x---x--x-x-x-x---|
D|-x---x--x--x---x--x---x-xxx--x--x---x--xxx--x--x---x--x-x-x-x---|
A|-x---x--x--x---x--x---x-xxx--x--x---x--xxx--x--x---x--x-x-x-x---|
E|-10--10-10-10--12-12--6-666--8--8---7--777--10-10--3--3-3-4-1---|


    Are you still a lost chauffer
    Driving your body around?
    Are you still a hunter
    For your sound?

    Cause honey, if you're still around
    Honey, if you're still around

    Is there someone to hold you tightly
    In their arms?
    If there's no one,
    Then drink a glass with me

    And show me what you sound like now
    Cause honey, if you're still around
    Honey, if you're still around



Verse II (heavily distorted)

e|-----------------------------------------------------------------|
B|-----------------------------------------------------------------|
G|-----------------------------------------------------------------|
D|-12--12-12-12--14-14--8-888--10-10--9--999--12-12--5--5-5/7\3----|
A|-12--12-12-12--14-14--8-888--10-10--9--999--12-12--5--5-5/7\3----|
E|-10--10-10-10--12-12--6-666--8--8---7--777--10-10--3--3-3/5\1----|


Verse I

    Is there someone to hold you tightly
    In their arms?
    If there's no one,
    Then drink a glass with me

    And show me what you sound like now
    Cause honey, if you're still around
    Honey, if you're still around
    Honey, if you're still around


Verse II

    Honey, if you're still around
    Honey, if you're still around
    Honey, if you're still around
    Honey, if you're still around
Tap to rate this tab
# A B C D E F G H I J K L M N O P Q R S T U V W X Y Z