Song name
# A B C D E F G H I J K L M N O P Q R S T U V W X Y Z

Scout Niblett - Hot To Death tab

-------------------------------------------------------------------------------
                             Hot to Death by Scout Niblett
-------------------------------------------------------------------------------

Tabbed by: Scott H.

From 2005's "Kidnapped by Neptune". This is not necessarily a difficult song to play, 
but you definitely need to listen to it to get the melody before attempting it because it 
is quite brisk.

Tuning: EADGBE


Verse Riff:

e|----------------------------------------------|
B|----------------------------------------------|
G|-8-7-12-11-12-7-8--------7b-7b-7b-7b----------|
D|-8-7-12-11-12-7-8-8-10-8-8b-8b-8b-8b----------|
A|-6-5-10-9--10-5-6-8-10-8-8b-8b-8b-8b----------|
E|------------------6-8--6-6--6--6--6-----------|

    Sittin' on the banks of a glassy river
    Mercury flew down to tell me a story
    As he began, it sounded familiar

    It starts with the sound of a lonely girl
    Rockin', rockin' in, rockin' her own world
    Shakin', shakin' it, shakin' her heart down

    Sealed in the stars the day she was born
    Pluto held the sun and she wears the crown
    DJ death prince of now is her name
    Hot to death, it gets hot to death


Ending Riff (heavily distorted)

e|------------------------------------------------|
B|------------------------------------------------|
G|-8-7-12-11-12-7-8-------------------------------|
D|-8-7-12-11-12-7-8-8-10-4-5-5-5-5-5-5-5-5-5------|
A|-6-5-10-9--10-5-6-8-10-4-5-5-5-5-5-5-5-5-5------|
E|------------------6-8--2-3-3-3-3-3-3-3-3-3------|

    "Whoa, whoa, whoa"
Tap to rate this tab
# A B C D E F G H I J K L M N O P Q R S T U V W X Y Z