Song name
# A B C D E F G H I J K L M N O P Q R S T U V W X Y Z

Scout Niblett - Gun tab

Intro:

|-----|  |---------|
|-----|  |---------|
|-----|  |---------|
|--4--|  |--4--4b--| x 3
|--4--|  |--4--4b--|
|--2--|  |--0--2b--|



Verse:

Fig. 1
|-----|---------|-----------------------|---------------------|
|-----|---------|-----------------------|---------------------|
|-----|---------|--8--8--8b-8b-8b-8b----|---------------------|
|--4--|--0--11--|--9--9--9b-9b-9b-9b-0--|--4--5-5-5-5----4-4--| x6
|--4--|--0--11--|--9--9--9b-9b-9b-9b-0--|--4--5-5-5-5----4-4--|
|--2--|--0--9---|--7--7--7b-7b-7b-7b-0--|--2--3-3-3-3-0--2p0--|

I think I gonna buy me a gun
A nice little silver one
And in a crowd someday
You wonít see it coming anyway

Maybe you been holding her hand
Or watching her shitty band
Really what did you expect
Spending moments lying in her bed

Your lies came so easily
I canít believe you think they work on me
I watched you both hide out
You didnít want the world to find out



Chorus: 

(Play all of this twice)
Fig. 2
|--------------------------------------|
|--------------------------------------|
|--------------------------------------|
|--4-4-4-4--4-4-4-4--4-4-4-4--4-4-4-4--|
|--4-4-4-4--4-4-4-4--4-4-4-4--4-4-4-4--|
|--2-2-2-2--2-2-2-2--2-2-2-2--2-2-2-2--|

|------------------------------------------------------|
|------------------------------------------------------|
|------------------------------------------------------|
|--11-11-11-11--11-11-11-11--11-11-11-11--11-11-11-11--|
|--11-11-11-11--11-11-11-11--11-11-11-11--11-11-11-11--|
|--9--9--9--9---9--9--9--9---9--9--9--9---9--9--9--9---|

|------------------------------------|-------------------------------------|
|------------------------------------|-------------------------------------|
|------------------------------------|-------------------------------------|
|--7-7-7-7--7-7-7-7/9-9-9-9--9-9-9-9-|-4-4-4-4--4-4-4-4--4-5-5-5--5-5-4-4--|
|--7-7-7-7--7-7-7-7/9-9-9-9--9-9-9-9-|-4-4-4-4--4-4-4-4--4-5-5-5--5-5-4-4--|
|--5-5-5-5--5-5-5-5/7-7-7-7--7-7-7-7-|-2-2-2-2--2-2-2-2--2-3-3-3--3-3-2-0--|


You took your love away from me
But I am thankful, everyday
She took your love away from me, from me
And I am thankful, everyday



Bridge:
(With distortion. Play it all twice)

|----------------------------------------------------------------|
|----------------------------------------------------------------|
|--------12-12-12-12-12-12-11-11--------16-16-16-16-16-16-18-18--|
|--4--4--------------------------11-11---------------------------|
|--4--4--10-10-10-10-10-10-9--9--11-11--14-14-14-14-14-14-16-16--|
|--2--2--------------------------9--9----------------------------|

|----------------------------------------------------|
|----------------------------------------------------|
|--------14-14-14-14-14-14-9-9-----------------------|
|--9--9-------------------------4--4--5-5-5-5-5-4-2--|
|--9--9--12-12-12-12-12-12-7-7--4--4--5-5-5-5-5-4-2--|
|--7--7-------------------------2--2--3-3-3-3-3-2-0--|



(clean)
|---------|
|---------|
|---------|
|--4--4b--| x2
|--4--4b--|
|--0--2b--|



Chorus:

Fig. 2 x2

She took your love away from me
And I am thankful, everyday
You took your love away from me, from me
And I am thankful, everyday



Verse:

Fig. 1 x2

But I think Iím gonna buy me a gun
A nice little silver one
In a crowd someday
You wonít see it coming anyway



Outro:

|---------------------|
|---------------------|
|---------------------|
|--5-5-5-5--4--4--4b--| x2
|--5-5-5-5--4--4--4b--|
|--3-3-3-3--2--0--2b--|

Tap to rate this tab
# A B C D E F G H I J K L M N O P Q R S T U V W X Y Z