Song name
# A B C D E F G H I J K L M N O P Q R S T U V W X Y Z

Scout Niblett - Dance Of Sulphur tab

Intro:
|------------|     |---------------------|
|----7-------|     |----7----6-----4--3--|
|----8----7--|     |----8----6-----3--3--|
|----8----8--| x2  |----8----6-----3--3--|
|--6------8--|     |--6----4----1--1--1--|
|-------6----|     |---------------------|



Verse:
|--------------------|     |---------------------|
|----7---------7-----|     |----7----6-----4--3--|
|----8----7----8--7--|     |----8----6-----3--3--|
|----8----8----8--8--| x3  |----8----6-----3--3--|
|--6------8--6----8--|     |--6----4----1--1--1--|
|-------6---------6--|     |---------------------|


the dance of sulphur
can take your wills away
it burns past places
that shadow your sun


|--------------------|     |-----------------------|---------------|
|----7---------7-----|     |----7----6-----11--11--|--11-----7-----|
|----8----7----8--7--|     |----8----6-----11--11--|--11--7--8--7--|
|----8----8----8--8--| x2  |----8----6-----11--11--|--11--8--8--8--|
|--6------8--6----8--|     |--6----4----9--9---9---|--9---8--6--8--|
|-------6---------6--|     |-----------------------|------6-----6--|


I felt something guarding me
as I entered the country
under water day
and a psychic moon



Verse:
|--------------------|------------------------------|
|----7---------7-----|----7---------7---------7-----|
|----8----7----8--7--|----8----7----8----7----8--7--|
|----8----8----8--8--|----8----8----8----8----8--8--|
|--6------8--6----8--|--6------8--6------8--6----8--|
|-------6---------6--|-------6---------6---------6--|


I fell over constantly
like I could
like I should
as you do when you learn
something good


|------------|    
|----7-------|    
|----8----7--|    
|----8----8--| x3 
|--6------8--|    
|-------6----|    

|---------------------|-----------------------|---------------|
|----7----6-----4--3--|----7----6-----11--11--|--11-----7-----|
|----8----6-----3--3--|----8----6-----11--11--|--11--7--8--7--|
|----8----6-----3--3--|----8----6-----11--11--|--11--8--8--8--|
|--6----4----1--1--1--|--6----4----9--9---9---|--9---8--6--8--|
|---------------------|-----------------------|------6-----6--|


and it grew and it grew and it grew
where the wild things rest
and my healer said it was meant to be
he'd have my smile
he'd have your hands



Outro:
|--------------------|---------------------|
|----7---------7-----|----7----6-----4--3--|
|----8----7----8--7--|----8----6-----3--3--|
|----8----8----8--8--|----8----6-----3--3--|
|--6------8--6----8--|--6----4----1--1--1--|
|-------6---------6--|---------------------|

|--------------------|------------------6--|
|----7---------7-----|----7-------------7--|
|----8----7----8--7--|----8----7-----8--8--|
|----8----8----8--8--|----8----8-----8--8--|
|--6------8--6----8--|--6------8--6--6--6--|
|-------6---------6--|-------6-------------|


so break me
for my rows of hearts and hands
the dance of sulphur
can try its best to mend
Tap to rate this tab
# A B C D E F G H I J K L M N O P Q R S T U V W X Y Z