Song name
# A B C D E F G H I J K L M N O P Q R S T U V W X Y Z

Scout Niblett - Relax tab

Listen for the rhythm, it can get tricky in some spots.

Intro:

|--7--7-7--10--7--7-7--10-10--2--2-2---------------|
|-------------------------------------3-3--5-5--0--|
|--------------------------------------------------|
|--------------------------------------------------|
|--7--7-7--10--7--7-7--10-10--2--2-2---------------|
|-------------------------------------3-3--5-5--0--|

|--7--7-7--10--7--7-7--10-10--2--2-2---------------|
|-------------------------------------3-3--5-5--5--|
|--------------------------------------------------|
|--------------------------------------------------|
|--7--7-7--10--7--7-7--10-10--2--2-2---------------|
|-------------------------------------3-3--5-5--0--|



Verse:

|--7--7-7--10--7--7-7--10-10--2-2---------------|
|----------------------------------3-3--5-5--0--|
|-----------------------------------------------|
|-----------------------------------------------|
|--7--7-7--10--7--7-7--10-10--2-2---------------|
|----------------------------------3-3--5-5--0--|

|--7--7-7--10--7--7-7-7--10-10--2-2---------------|
|------------------------------------3-3--5-5--0--|
|-------------------------------------------------|
|-------------------------------------------------|
|--7--7-7--10--7--7-7-7--10-10--2-2---------------|
|------------------------------------3-3--5-5--0--|

|--7--7-7--10--7--7-7--10-10--2-2---------------|
|----------------------------------3-3--5-5--0--|
|-----------------------------------------------|
|-----------------------------------------------|
|--7--7-7--10--7--7-7--10-10--2-2---------------|
|----------------------------------3-3--5-5--0--|

|--7--7-7--10--7--7-7--10-10--2-2---------------|
|----------------------------------3-3--5-5--5--|
|-----------------------------------------------|
|-----------------------------------------------|
|--7--7-7--10--7--7-7--10-10--2-2---------------|
|----------------------------------3-3--5-5--0--|

Come as your noise
Your little voice
it's the only way to relax
So you forgot what you sound like
that's no way to relax

Turn the sound down to hear yourself
it's the only way to relax
Come as your noise
your little voice


Chorus:

|--7--7--2--2--------2--2-2--|
|--------------0--0----------|
|----------------------------| x2
|----------------------------|
|--7--7--2--2--------2--2-2--|
|--------------0--0----------|

|--7--7--2--2----------2--2-2--|
|--------------0--0-0----------|
|------------------------------| x2
|------------------------------|
|--7--7--2--2----------2--2-2--|
|--------------0--0-0----------|

I smell fear cooking somewhere 'round here x2

Come on, scout, relax
nothings yours anyway x2



Verse:

|--7--7-7--10--7--7-7--10-10--2-2-2---------------|
|------------------------------------3-3--5-5--0--|
|-------------------------------------------------|
|-------------------------------------------------|
|--7--7-7--10--7--7-7--10-10--2-2-2---------------|
|------------------------------------3-3--5-5--0--|

|--7--7-7--10--7--7-7--10-10--2-2---------------|
|----------------------------------3-3--5-5--0--|
|-----------------------------------------------|
|-----------------------------------------------|
|--7--7-7--10--7--7-7--10-10--2-2---------------|
|----------------------------------3-3--5-5--0--|

|--7--7-7--10--7--7-7--10-10--2-2-----------------|
|----------------------------------3-3-3--5-5--0--|
|-------------------------------------------------|
|-------------------------------------------------|
|--7--7-7--10--7--7-7--10-10--2-2-----------------|
|----------------------------------3-3-3--5-5--0--|

|--7--7-7--10--7--7-7--10-10--2-2---------------|
|----------------------------------3-3--5-5--5--|
|-----------------------------------------------|
|-----------------------------------------------|
|--7--7-7--10--7--7-7--10-10--2-2---------------|
|----------------------------------3-3--5-5--0--|

Come as your noise
your little voice
its the only way to relax

As i go my way, you
(-) 'till safety
My special friend
you're all around
All the better to see you live

Come as your noise
your little voice
Oh it's the only way to relax
Tap to rate this tab
# A B C D E F G H I J K L M N O P Q R S T U V W X Y Z