Song name
# A B C D E F G H I J K L M N O P Q R S T U V W X Y Z

Scout Niblett - Wide Shoulders tab

Intro:
|-------------------------------------|
|-------------------------------------|
|--3--3-3---6--6-6---10--10b----------|
|--4--4-4---7--7-7---11--11b---9--9b--|
|--4--4-4---7--7-7---11--11b---9--9b--|
|--2--2-2---5--5-5---9---9-----7--7---|

|--------------------------------------------|
|--------------------------------------------|
|--3--3-3---6--6--6-6-6-6---10--10b----------|
|--4--4-4---7--7--7-7-7-7---11--11b---9--9b--|
|--4--4-4---7--7--7-7-7-7---11--11b---9--9b--|
|--2--2-2---5--5--5-5-5-5---9---9-----7--7---|



Verse:
|--------------------------------------------|
|--------------------------------------------|
|--3--3-3---6--6-6-6-6---10--10--10----------|
|--4--4-4---7--7-7-7-7---11--11--11---9--9b--| x2
|--4--4-4---7--7-7-7-7---11--11--11---9--9b--|
|--2--2-2---5--5-5-5-5---9---9----9---7--7---|

|-------------------------------------|
|-------------------------------------|
|--3--3-3---6--6-6---10--10b----------|
|--4--4-4---7--7-7---11--11b---9--9b--| x2
|--4--4-4---7--7-7---11--11b---9--9b--|
|--2--2-2---5--5-5---9---9-----7--7---|

can i just be the way i was going to be in your eyes?
can i just lose my way all i need is here?
can i just be the way i was going to be in your eyes?
can i just lose my way, all i need is here?



Chorus:
|------------------------------------------------------------|
|------------------------------------------------------------|
|--3--3-3-3-3---6--6-6-6---10-10-10-10-10-10---9-9-9-9-9-10--|
|--4--4-4-4-4---7--7-7-7---11-11-11-11-11-11---9-9-9-9-9-10--|
|--4--4-4-4-4---7--7-7-7---11-11-11-11-11-11---7-7-7-7-7--8--|
|--2--2-2-2-2---5--5-5-5---9--9--9--9---9--9-----------------|

|------------------------------------------------|
|------------------------------------------------|
|--11-11-11-11-11-11---6--6-6---10--10b----------|
|--11-11-11-11-11-11---7--7-7---11--11b---9--9b--|
|---9--9--9--9--9--9---7--7-7---11--11b---9--9b--|
|----------------------5--5-5---9---9-----7--7---|

can i just look at myself long enough to see
home is a golden gate place
i keep in my sleeve?



Verse:
|-------------------------------------|
|-------------------------------------|
|--3--3-3---6--6-6---10--10b----------|
|--4--4-4---7--7-7---11--11b---9--9b--|
|--4--4-4---7--7-7---11--11b---9--9b--|
|--2--2-2---5--5-5---9---9-----7--7---|

|--------------------------------------------|
|--------------------------------------------|
|--3--3-3---6--6-6-6-6---10--10b--10---------|
|--4--4-4---7--7-7-7-7---11--11b--11---9--9--|
|--4--4-4---7--7-7-7-7---11--11b--11---9--9--|
|--2--2-2---5--5-5-5-5---9---9----9----7--7--|

|-------------------------------------|
|-------------------------------------|
|--3--3-3---6--6-6---10--10b----------|
|--4--4-4---7--7-7---11--11b---9--9b--|
|--4--4-4---7--7-7---11--11b---9--9b--|
|--2--2-2---5--5-5---9---9-----7--7---|

|---------------------------------------------|
|---------------------------------------------|
|--3--3-3---6--6-6-6-6---10--10b--10----------|
|--4--4-4---7--7-7-7-7---11--11b--11---9--9b--|
|--4--4-4---7--7-7-7-7---11--11b--11---9--9b--|
|--2--2-2---5--5-5-5-5---9---9----9----7--7---|

shoulders are wide this time
helps me feel like a strong grounded man
they let me swim so fine
steady strokes
hold my shine
can i just be the way i was going to be in your eyes?
can i just lose my way all i need is here?


Chorus:
|------------------------------------------------------------|
|------------------------------------------------------------|
|--3--3-3-3-3---6--6-6-6---10-10-10-10-10-10---9-9-9-9-9-10--|
|--4--4-4-4-4---7--7-7-7---11-11-11-11-11-11---9-9-9-9-9-10--|
|--4--4-4-4-4---7--7-7-7---11-11-11-11-11-11---7-7-7-7-7--8--|
|--2--2-2-2-2---5--5-5-5---9--9--9--9---9--9-----------------|

|------------------------------------------------|
|------------------------------------------------|
|--11-11-11-11-11-11---6--6-6---10--10b----------|
|--11-11-11-11-11-11---7--7-7---11--11b---9--9b--|
|---9--9--9--9--9--9---7--7-7---11--11b---9--9b--|
|----------------------5--5-5---9---9-----7--7---|

can i just look at myself long enough to see
home is a golden gate place
i keep in my sleeve?



Outro:
|---------------------------------------|
|---------------------------------------|
|--3--3-3-3---6--6-6---10--10b----------|
|--4--4-4-4---7--7-7---11--11b---9--9b--|
|--4--4-4-4---7--7-7---11--11b---9--9b--|
|--2--2-2-2---5--5-5---9---9-----7--7---|

|------------------------------------------|
|------------------------------------------|
|--3--3-3---6--6-6-6---10--10--10----------|
|--4--4-4---7--7-7-7---11--11--11---9--9b--|
|--4--4-4---7--7-7-7---11--11--11---9--9b--|
|--2--2-2---5--5-5-5---9---9---9----7--7---|

|-----|
|-----|
|--3--|
|--4--|
|--4--|
|--2--|

can i just look at myself long enough to see
home is a golden gate place
i keep in my sleeve?
can i just be the way i was going to be in your eyes?
can i just lose my way all i need is here? 
Tap to rate this tab
 
# A B C D E F G H I J K L M N O P Q R S T U V W X Y Z