Scrambled Eggs - Humba tab

Band/Artist:Scrambled Eggs
Song:Humba
Tabbed by:L.G.T.

Intro: G-D-C-(C)-;
           G           D          C           (C)           
e|-10~-8~-7~-7-8-10-8-7--7-8-10-8-7--7-8-10-8-7--7-8-10-8-7--|
B|---------8-----------8-----------8-----------8-------------|
G|-----------------------------------------------------------|
D|-----------------------------------------------------------|
A|-----------------------------------------------------------|
E|-----------------------------------------------------------|
    G                D                C                (C)
Pm  . . . . .  .  . .. . . . .  .  . .. . . . .  .  . .. . . . .  .  . .  
e|------7-8-10-10-8-7----7-8-10-10-8-7----7-8-10-10-8-7----7-8-10-10-8-7--|
B|--8-8--------------8-8--------------8-8--------------8-8----------------|
G|------------------------------------------------------------------------|
D|------------------------------------------------------------------------|
A|------------------------------------------------------------------------|
E|------------------------------------------------------------------------|


Verse:
   G                 D               C               (C)
e|--------------------------------------------------------------------|
B|--------------------------------------------------------------------|
G|------------------7-7-7-7-7-7-7-7--5-5-5-5-5-5-5-5-5-5-5-5-5-5-5-5--|repeat 3 times
D|-5-5-5-5-5-5-5-5--7-7-7-7-7-7-7-7--5-5-5-5-5-5-5-5-5-5-5-5-5-5-5-5--|
A|-5-5-5-5-5-5-5-5--5-5-5-5-5-5-5-5--3-3-3-3-3-3-3-3-3-3-3-3-3-3-3-3--|
E|-3-3-3-3-3-3-3-3----------------------------------------------------| 
Then:
   G                 D               C                D
e|--------------------------------------------------------------------|
B|--------------------------------------------------------------------|
G|------------------7-7-7-7-7-7-7-7--5-5-5-5-5-5-5-5--7-7-7-7-7-7-7-7-|
D|-5-5-5-5-5-5-5-5--7-7-7-7-7-7-7-7--5-5-5-5-5-5-5-5--7-7-7-7-7-7-7-7-|
A|-5-5-5-5-5-5-5-5--5-5-5-5-5-5-5-5--3-3-3-3-3-3-3-3--5-5-5-5-5-5-5-5-|
E|-3-3-3-3-3-3-3-3----------------------------------------------------| 



G        D          C             (C)
Humba lami labi nag na kay sili sa imong sawsawan   
   G            D             C            (C)
Paborito nakong paniudto sa payag ni badong power kaayo
     G              D            C                   (C)
Akong puwesto sakto jud sa kanto,kita ang tanan nga mukaon didto
     G           D                C                    D 
Unya gitunol ang akong order sa kalit milingkod ka sa akong atubangan

Chorus: G-D-C-D-;(strum)

Nakuratan ko akong kan on nayabo
Ultimo humba nilayat sa yuta
Nakuratan ko di ko katuo
Sa imong kaarte kaabot ka dinhi

verse:2(chords same as first verse)

Nabulabog ang uban ni katawa nya nilingi ang tanan sa imong kagwapa
Bisag tuod ug budlaton kag mata
Apan sa imong tingsi diha ko patya
Pananglitan kadto mausban
Himuon ang tanan aron malikayan

chorus: G-D-C-D-;(strum) 

Nakuratan ko akong kan on nayabo
Ultimo humba nilayat sa yuta
Nakuratan ko di ko katuo
Sa imong kaarte kaabot ka dinhi

Tap to rate this tab
 
# A B C D E F G H I J K L M N O P Q R S T U V W X Y Z