Song name
# A B C D E F G H I J K L M N O P Q R S T U V W X Y Z

Scrambled Eggs - Naglibog tab

Band/Artist:Scrambled Eggs
Song:Naglibog
Tabbed by:L.G.T.

Intro:
e|---3---1---0---1---3---1---0---1---3---1---0---1---3---1---0---1--|
B|-0---0---0---0---0---0---0---0---0---0---0---0---0---0---0---0----|
G|------------------------------------------------------------------|
D|------------------------------------------------------------------|
A|------------------------------------------------------------------|
E|------------------------------------------------------------------|

G-Am-Bm-C-(4 times)
e|---3---1---0---1---3---1---0---1---3---1---0---1---3---1---0---1--|
B|-0---0---0---0---0---0---0---0---0---0---0---0---0---0---0---0----|(repeat
G|------------------------------------------------------------------| 4 times)
D|------------------------------------------------------------------|
A|------------------------------------------------------------------|
E|------------------------------------------------------------------|


Verse:
G-Am-Bm-C-
Unsa man ang imung gusto,mura na kag way klaro
Matud pa ang gugma mo na lubog pa sa milo

Matag lakaw nato,manuroy ta sa manggo
Maghilak kung di mugasto,para lang maka remedio

Refrain:
G-Am-Bm-C-
Wa ko kasabot sa tinuoray lang
Kay ako naglibog na,Og hapit na mabuang

Chorus:
G-Am-Bm-C-
Unsa man ang imung ganahan,seryoso ba o binuang lang
Kay kung ako ang pangutan-on,ikaw ang akung pabut-on

Unsa man ang imung ganahan,seryoso ba o binuang lang
Kay kung ako ang pangutan-on,ikaw ang akung pabut-on

Verse:
G-Am-Bm-C-
Kung ikaw naglibog pa,ayaw pagdali og huna huna-a
Aron dili ka magmahay,kay mao man sad ang imung ampay

Matag lakaw nato,manuroy ta sa manggo
Maghilak kung di mugasto,para lang maka remedio

Refrain:
G-Am-Bm-C-
Wa ko kasabot sa tinuoray lang
Kay ako naglibog na,og hapit na mabuang

Chorus:
G-Am-Bm-C-
Unsa man ang imung ganahan,seryoso ba o binuang lang
Kay kung ako ang pangutan-on,ikaw ang akung pabut-on

Unsa man ang imung ganahan,seryoso ba o binuang lang
Kay kung ako ang pangutan-on,ikaw ang akung pabut-on

G-Am-Bm-C-
Wohhowoo wohhowoo hoohooowowowoooh

Verse:
G-Am-Bm-C-
Kung ikaw naglibog pa,ayaw pagdali og huna huna-a
Aron dili ka magmahay,kay mao man sad ang imung ampay

Refrain:
G-Am-Bm-C-
Wa ko kasabot sa tinuoray lang,
kay ako naglibog na,og hapit na mabuang

Chorus:
G-Am-Bm-C-
Unsa man ang imung ganahan,seryoso ba o binuang lang
Kay kung ako ang pangutan-on,ikaw ang akung pabut-on

Unsa man ang imung ganahan,seryoso ba o binuang lang
Kay kung ako ang pangutan-on,ikaw ang akung pabut-on

Outro: 
G-Am-Bm-C-
e|--------------------------------------------------------------------|
B|-8~-7-8-10-8-7-8-----7-8-10-8-7-8-12~-7-8-10-8-7-8----7-8-10-8-7-8~-|
G|------------------7~-------------------------------7~---------------|
D|--------------------------------------------------------------------|
A|--------------------------------------------------------------------|
E|--------------------------------------------------------------------|

e|--------------------------------------------------------------------|
B|----7-8-10-8-7-8-----7-8-10-8-7-8-12~-7-8-10-8-7-8----7-8-10-8-7-8~-|
G|------------------7~-------------------------------7~---------------|
D|--------------------------------------------------------------------|
A|--------------------------------------------------------------------|
E|--------------------------------------------------------------------|

Tap to rate this tab
# A B C D E F G H I J K L M N O P Q R S T U V W X Y Z