Song name
# A B C D E F G H I J K L M N O P Q R S T U V W X Y Z

Scratch Acid - Cannibal tab

Stratch Acid- Cannibal

Standard Tuning- Heavy Distortion.


Verse & Chorus

E5  F5
E----------|
B----------|
G-----9----|
D-2-2\9----| x8
A-2-2\7----|
E-0-0\-----|

 C5 F5
E----------|
B----------|
G-55\9-----| X3
D-55\9-----|
A-33\7-----|
E----------|


 G5 F5
E----------|
B----------|
G---\9-----| X3
D-55\9-----|
A-55\7-----|
E-33-------|


Solo-

E----------------------------------------|
B---9-9-12--12-12-12---------------------|
G-9-9-9-9-9-9--12-12-12-12-12---11-11-11-|
D--------------------------12-12---11-11-|
A----------------------------------------|
E----------------------------------------|


E----------------------------------------|
B----------------------------------------|
G-9-9-9-9-9-9--13-12-12-12-12-12-12-12-9-|
D-----------------------10-10-11-10-11-7-|
A----------------------------------------|
E----------------------------------------|
Tap to rate this tab
# A B C D E F G H I J K L M N O P Q R S T U V W X Y Z