Song name
# A B C D E F G H I J K L M N O P Q R S T U V W X Y Z

Scratch Acid - Greatest Gift tab

Greatest Gift (low to high)

-------------|
-------------|
-------------|
-------------|
----2--1--0--|
-3-----------|play 6x, it speeds up gradually. Play one more G before going into verse.

Verse:

--------------------------------------|
--------------------------------------|
--------------------------------------|
--------------------------------------|
------------------------0-1-2-1--1-0--|
-0-0-3--0-0-0-3--0-0-0----------------|

Chorus:

B G

play that a few times, end with an E powerchord on the seventh fret.

Solo:

-----------|
-17----12--|
-16----12--|
-------12--|
-----------|
-----------| play around with those chords and make noise

then something like:

-15--------------------15---15-----------|
----17-15-----15-14-12---------17-15-----|
----------16-------------------------16--|
-----------------------------------------|
-----------------------------------------|
-----------------------------------------|

-15-----------------------------|
----17-15-----------------------|
----------16---14b-14b-14b-14b--|
--------------------------------|
--------------------------------|
--------------------------------|

end on high E powerchord.
b=bend
Tap to rate this tab
 
# A B C D E F G H I J K L M N O P Q R S T U V W X Y Z