Song name
# A B C D E F G H I J K L M N O P Q R S T U V W X Y Z

Scratch Acid - Mary Had A Little Drug Problem tab

Mary Had A Little Drug Problem (low to high)

---------|
---------|
-9/10--9-|
-9/10--9-|
-7/8---7-|
---------|

I don't know that main riff! Fuck! It's something like this:

------------------------------------|
------------------------------------|
------------------------------------|
------------------------------------|
------2-2-0-0-----------------------|
-0--0---------0-0-3-3-0-0--2-3-2-0--|

other part:

-------------|
-------------|
-9--x7--5/4--|
-9--x7--5/4--|
-7--x5--3/2--|
-------------| that's a few times, then break:

-----------------------------------|
-----------------------------------|
-----------------------------------|
-----------------------------------|
-7~--8~--13~--7~--7~--8~--13~--7~--|
-----------------------------------|

That main riff is incomplete.

~=vibrato
Tap to rate this tab
# A B C D E F G H I J K L M N O P Q R S T U V W X Y Z