Song name
# A B C D E F G H I J K L M N O P Q R S T U V W X Y Z

Scream - Darknes Vs The Light tab

--12----------------------------------------|
-5---12------------------------------14b/17-|
-------7---------------13h12h13h12h13-------|
---------14------21b/12---------------------|
------------17/21---------------------------|
--------------------------------------------|

-17b15------------------------------9/12----|
-------15/14/13/12b^12-----------14---------|
----------------------11/9----15------------|
---------------------------16---------------|
--------------------------------------------|
--------------------------------------------|
Tap to rate this tab
# A B C D E F G H I J K L M N O P Q R S T U V W X Y Z