Song name
# A B C D E F G H I J K L M N O P Q R S T U V W X Y Z

Screaming Females - Jonah tab

http://www.screamingfemales.com/

Artist:  Screaming Females
Song:    Jonah
Album:   Baby Teeth
Tab by:  JD Zellers


   E7?   A7   A    G
e|--------------------||
A|--------------------||
D|--9----7----6----4--||
G|--6----6----7----5--||
B|--7----7----7----5--||
E|--------------------||


VERSE:
    E7          A7          A           G
e|---------------------------------------------------||
A|---------------------------------------------------||
D|--------9-----------7-----------6-----------4------||  x 4
G|-----6-----6-----6-----6-----7-----7-----5-----5---||
B|--7-----------7-----------7-----------5------------||
E|---------------------------------------------------||


INTERLUDE/SOLO: staccato, let ring during "solo" at end
e|---------------------------------------------------------||
A|---------------------------------------------------------||
D|----------------9--9--9---9---7--7--7---7---6--6--6-7-9--||x2
G|----------6-9-6---------9---9---------9---9--------------||
B|--7--7--7------------------------------------------------||
E|---------------------------------------------------------||


CHORUS:
    E7            A7     A             G
e|--------------------------------------------------||
A|--------------------------------------------------||
D|--7h9--9--x-x-x-x-7-7----6--6--x-x-x-x-4--4-------||x4
G|--6----6--x-x-x-x-6-6----7--7--x-x-x-x-5--5-------||
B|--7----7--x-x-x-x-7-7----7--7--x-x-x-x-5--5-------||
E|--------------------------------------------------||


LEAD-IN to BRIDGE:

e|-------------------------------------------||
A|-------------------------------------------||
D|---4----6----9----7h9p7h9h---9-9-9-9-9-----||
G|---5----7----6-----------------------------||
B|---5----7----7-----------------------------||
E|-------------------------------------------||


OUTRO:
                  A7
e|---------------|x|
A|---------------|5|
D|--6-7-9-4-5-7--|7|x3
G|---------------|6|
B|---------------|x|
E|---------------|x|


Verse 1:
beneath myself, how holiday's go
this borne child with stupendous host
they told me so
i thought you should know

Chorus:
a face of flies
the hands of murder collide
your mom ain't home
i'm gonna catch you alone

Verse 2:
needles slide to the dropping slope
and infant with twin talents
they told me so
i thought you should know
Tap to rate this tab
# A B C D E F G H I J K L M N O P Q R S T U V W X Y Z