Screaming Females - I Do tab

			     I Do-Screaming Females
Tabbed by:Ethan Hausler
Email:ethanhausler@yahoo.com

Tuning:Standard

Intro and Verses
e|-----------------------------------------------------------------------|
B|-----------------------------------------------------------------------|
G|-14-14--1414-xx--11-12-------------------------------------------------|
D|-12-12--1212-xx-----------16-16-14~-14/--------------------------------|
A|--------------------------14-14----------------------------------------|
E|-----------------------------------------------------------------------|

Chorus 
e|-----------------------------------------------------------------------|
B|-----------------------------------------------------------------------|
G|-9-9-99-xx-77-xx-99-7--67--9-9-99-xx-77-676-4-2------------------------|
D|-9-9-99-xx-77-xx-99-7------9-9-99-xx-77--------------------------------|
A|-7-7-77-xx-55-xx-77-5------7-7-77-xx-55--------------------------------|
E|-----------------------------------------------------------------------|

e|-----------------------------------------------------------------------|
B|-----------------------------------------------------------------------|
G|-9-9-99-xx-77-xx-99-7---7*---9-9-99-xx-77------------------------------|
D|-9-9-99-xx-77-xx-99-7--7*----9-9-99-xx-77-2-4-6-7-6--------------------|
A|-7-7-77-xx-55-xx-77-5--------7-7-77-xx-55-0-2-4-5-4--------------------|
E|-----------------------------------------------------------------------|

Order:
Intro
Verse
Chorus
Verse
Chorus
Solo
Verse Riff


Thats pretty much it except for the solo (which I dont have) theres no guitar in the outro part.

Corrections, comments or anything else feel free to email me.




************************************

| /   slide up
| \   slide down
| h   hammer-on
| p   pull-off
| ~   vibrato
| *   harmonic
| x   Mute note
| b   Bend
| pb  Pre-bend
| br  Bend release
| pbr Pre-bend release
| brb Bend release bend

************************************
Tap to rate this tab
 
# A B C D E F G H I J K L M N O P Q R S T U V W X Y Z