Screaming Females - Wild tab

------------------------------------------------------------------ 
WILD - Screaming Females
------------------------------------------------------------------
Tabbed by: the.insomniac247
Tuning: Standard

PART 1 (0:13-0:22)

e|-9--9--9--9--9---9------9--9--9----|
B|-9--9--9--9--9-----9----9--9--9----| X2
G|-11-11-11-11-11------11-11-11-11---|
D|-11-11-11-11-11---------11-11-11---|
A|-9--9--9--9--9----------9--9--9----|
E|-----------------------------------|

THEN
e|-9--9--9--9--9------------|
B|-9--9--9--9--9------------|
G|-11-11-11-11-11--6/13b----|
D|-11-11-11-11-11-----------|
A|-9--9--9--9--9------------|
E|--------------------------|

PART 2 (0:23-0:36)

e|-----------------------------------------------------------|
B|--------------------11---------------------11-11-----------|
G|-11--13--11--11-11-----11--11-11--13-11-13-------13--13----| X2
D|-----------------------------------------------------------|
A|-----------------------------------------------------------|
E|-----------------------------------------------------------|

PART 3 (0:37-0:50)

e|---------------------------------------------------------------------|
B|---------------------------------------------------------------------|
G|-18--18--18-18-18-18-16-15/16/15-13-11-11-11-11-11-11/15-15-15/13----| X2
D|---------------------------------------------------------------------|
A|-16--16--16-16-16-16-14-13/14/13-11-9--9--9--9--9--9/13--13-13/11----|
E|---------------------------------------------------------------------|

PART 4 (0:51-1:02)

e|--------------------------------------------------|
B|--------------------------------------------------|
G|--------------------------------------------------|
D|----------------19-------------------19----21b----|
A|-11-13--16--18--------11-13--16--18---------------|
E|--------------------------------------------------|

PART 5 (1:03-1:16)
 Repeat PART 2

PART 6 (1:17-1:43)
Repeat PART 3 X4

PART 7 (1:44-2:10)
e|------14-------14---14--14------14-------14---14--14--------|
B|------------------------------------------------------------|
G|------------------------------------------------------------|
D|-16-16----16-16--16---16--16-16----16-16--16---16-----------|
A|------------------------------------------------------------|
E|------------------------------------------------------------|

------14-------14---14--14------14-------14---14--14----------|
--------------------------------------------------------------|
-16-16----16-16--16---16--16-16----16-16--16---16-------------|
--------------------------------------------------------------|
--------------------------------------------------------------|
--------------------------------------------------------------|

------14-------14---14--14------14-------14---14--14----------|
--------------------------------------------------------------|
-17-17----17-17--17---17--17-17----17-17--17---17-------------|
--------------------------------------------------------------|
--------------------------------------------------------------|
--------------------------------------------------------------|

------14-------14---14--14--16-16-16-16-16-14-14----|
----------------------------------------------------|
-16-16----16-16--16---16----------------------------|
----------------------------------------------------|
----------------------------------------------------|
----------------------------------------------------|

 THEN
e|------14-------14---14--14------14-------14---14--14--------|
B|------------------------------------------------------------|
G|------------------------------------------------------------|
D|-16-16----16-16--16---16--16-16----16-16--16---16-----------|
A|------------------------------------------------------------|
E|------------------------------------------------------------|

------14-------14---14--14------14-------14---14--14----------|
--------------------------------------------------------------|
-16-16----16-16--16---16--16-16----16-16--16---16-------------|
--------------------------------------------------------------|
--------------------------------------------------------------|
--------------------------------------------------------------|

------14-------14---14--14------14-------14---14--14----------|
--------------------------------------------------------------|
-17-17----17-17--17---17--17-17----17-17--17---17-----16b-----|
--------------------------------------------------------------|
--------------------------------------------------------------|
--------------------------------------------------------------|

PART 8 (2:10-2:17)

e|-------|
B|-------|
G|-11----| X31
D|-11----|
A|-9-----|
E|-------|

PART 9 (2:18-2:44)
Repeat PART 3 X4

PART 10 (2:45-2:57)
Repeat PART 4

PART 11 (2:58-3:12)
Repeat PART 2

PART 12 (3:13-3:26)
 Repeat first riff of PART 1 X4

PART 13 (3:26-3:32)
Repeat PART 8

PART 14 (3:33- END)

e|-------------------------------------------|
B|-------------------------------------------|
G|-18--18--18-18-18-18-16-15/16/15-13-11-----|
D|-------------------------------------------|
A|-16--16--16-16-16-16-14-13/14/13-11-9------|
E|-------------------------------------------|
Tap to rate this tab
 
# A B C D E F G H I J K L M N O P Q R S T U V W X Y Z