Song name
# A B C D E F G H I J K L M N O P Q R S T U V W X Y Z

Screaming Females - Starving Dog tab

    STARVING DOG- SCREAMING FEMALES
-------------------------------------
Tabbed by:fpongratz
Email:fpongratz@hotmail.com
Tuning: Standard
Tone: Very thrashy crunch distortion
 Intro-Do this riff 4x
e|-----------------------------------------------------------------------------|
B|-----------------------------------------------------------------------------|
G|-14-14-14-14-14-14-------------------12~-------------------------------------|
D|-x--x--x--x--x--x----x-----12h14p12------------------------------------------|
A|-12-12-12-12-12-12-12--------------------------------------------------------|
E|-----------------------------------------------------------------------------|
  Then do it a 5th time like this
e|-----------------------------------------------------------------------------|
B|-----------------------------------------------------------------------------|
G|-------------------------------14b--make this scream!------------------------|
D|-14-14-14-14-14-14-----14b---------------------------------------------------|
A|--x---x---x--x---x---x-------------------------------------------------------|
E|-12-12-12-12-12-12-12--------------------------------------------------------|
    Verse- listen to for help with timing, use a neck pickup or new tone
       Do this  riff 4x
e|-----------------------------------------------------------------------------|
B|-----------------------------------------------------------------------------|
G|-14-14-14----14/15-15-15-15-14-----------------------------------------------|
D|-12-12-12----12/13-13-13-13-12-----------------------------------------------|
A|-----------------------------------------------------------------------------|
E|-----------------------------------------------------------------------------|
  Then you do a slide up to lead into the chorus
e|-----------------------------------------------------------------------------|
B|-----------------------------------------------------------------------------|
G|--/12~~~---------------------------------------------------------------------|
D|-----------------------------------------------------------------------------|
A|-----------------------------------------------------------------------------|
E|-----------------------------------------------------------------------------|
    Now the chorus is really hard to figure out and I know this isnt exactly how Marissa 
plays it but it works.
Play this 2x and on the second time you should alternate pick the 10 on the G when you bend it.
e|-----------------------------------------------------------------------------|
B|-----------------------------------------------------------------------------|
G|------------7-10-1010-9-7------------------------7-10-10b-10-----------------|
D|--7-9-10----------------------10-9-7~--7-9-10--------------------------------|
A|-----------------------------------------------------------------------------|
E|-----------------------------------------------------------------------------|
Then, after the next verse there is a drum break where you can improvise the guitar 
backing part. Just play it off the intro riff.
Then for the last part play the chorus riff with this ending
You alternate pick really fast while you are still bending each note at the end. 
Finishing it all off with an artificial harmonic, bend, and a slide down the neck.
e|-----------------------------------------------------------------------------|
B|-----------------------------------------------------------------------------|
G|------------7-10-1010-9-7------------------------7-10-10b10101010101010------|
D|--7-9-10----------------------10-9-7~--7-9-10--------------------------------|
A|-----------------------------------------------------------------------------|
E|-----------------------------------------------------------------------------|

e|-----------------------------------------------------------------------------|
B|-----------------------------------------------------------------------------|
G|--9b999999999999-----7b77777777777777-----5b5555555555----4+b\---------------|
D|-----------------------------------------------------------------------------|
A|-----------------------------------------------------------------------------|
E|-----------------------------------------------------------------------------|

Thank you for reading, comments and ratings are greatly appreciated.
Rock on Screaming Females!
************************************

| /   slide up
| \   slide down
| h   hammer-on
| p   pull-off
| ~   vibrato
| +   harmonic
| x   Mute note
| b   Bend
| pb  Pre-bend
| br  Bend release
| pbr Pre-bend release
| brb Bend release bend

************************************
Tap to rate this tab
 
# A B C D E F G H I J K L M N O P Q R S T U V W X Y Z