Song name
# A B C D E F G H I J K L M N O P Q R S T U V W X Y Z

Screaming Females - It All Means Nothing tab

This is the intro/ chorus riff for this song from their 2012 album Ugly

e|-------------------------------|
B|-5--5-5-9-9-7------------------|
G|-6--6-6-9-9-8------------------|
D|-7--7-7-9-9-9--9/11-11-11-9-7--|
A|-7--7-7-----9------------------|
E|-5--5-5-----7------------------|

e|---------------------------------|
B|-5--5-5-9-9----------------------|
G|-6--6-6-9-9-9/11-11/14-14/16-16~-|
D|-7--7-7-9-9----------------------|
A|-7--7-7--------------------------|
E|-5--5-5--------------------------|

easy and fun!
Tap to rate this tab
 
# A B C D E F G H I J K L M N O P Q R S T U V W X Y Z