Guitaretab - guitar tabs
Song name
# A B C D E F G H I J K L M N O P Q R S T U V W X Y Z

Screaming Jets - Cmon tab

This a damn good song.If ya got any problems with this tab just email me at 
   ENJOY
[ Tab from: http://www.guitaretab.com/s/screaming-jets/164912.html ]
E------------------------------------------------------------|This goes on
B-----------3-3-3--------------------------------------------|through the
G--2-2-2-2--2-2-2--2-2-2-2-----------------------------------|intro and
D--2-2-2-2--0-0-0--2-2-2-2-----------------------------------|verse.
A--0-0-0-0---------0-0-0-0-----------------------------------|
E--------------------------2-3-4-----------------------------|
Chorus
E-----------------------2------------------------------------|
B-----------------------3------------------------------------|
G--2--------------------2------------------------------------| X2
D--2---------------------------------------------------------|
A--0---------------------------------------------------------|
E------------------------------------------------------------|
Bridge
E------------------------------------------------------------|
B------------------------------------------------------------|
G--2---------------------------------------2-----------------|
D--2---------------------------------------2-----------------|
A--0---------------------------------------0-----------------|
E------------------------------------------------------------|          Solo
E------------------------------------------------------------|
B------7\-------------7\-------------------------------------|It does this
G------7\-----8\------7\-------------------------------------|for a while
D--7H8----7H8-----7H8----7H8-8\------------------------------|and then...
A------------------------------------------------------------|
E------------------------------------------------------------|

E------------------------------------------------------------|Back to verse
B------------------------------------------------------------|
G--5-5-4-4-3-3-2-2-------------------------------------------|
D------------------------------------------------------------|
A------------------------------------------------------------|
E------------------------------------------------------------|

Key:
\=Slide down
H=Hammer on
Related for Cmon tab