Guitaretab - guitar tabs
Song name
# A B C D E F G H I J K L M N O P Q R S T U V W X Y Z

Screaming Jets - Helping Hand tab

Title: Helping Hand
Band: The Scream Jets
Album: Tear Of Tought

This is a sweet song me and my friend worked out so i thought i'd share it with 
Great Song By a Great AUSSIE BAND!!!!
Enjoy

INTRO:

  G#m             F#              C#m             E       F#
e|----7---7-4---4---2-----2-----2---------------------------------|
B|----4---4-4---4---2----2--2-------------5---------5-------7-----|
G|----4---4-4---4---3---3-----3----------6--6---------4-------6---|
D|---------------------4----------------6-----6---------6-------8-|
A|-------------------------------------4--------4-7-------9-------|
E|----------------------------------------------------------------|

  G#m             F#              C#m             E       F#
e|--------7-4---4---2-----2-2---2---------------------------------|
B|--------4-4---4---2----2--2---2---------5---------5-------7-----|
G|--------4-4---4---3---3---3---3--------6--6---------4-------6---|
D|---------------------4----------------6-----6---------6-------8-|
A|-------------------------------------4--------4-7-------9-------|
E|----------------------------------------------------------------|

VERSE:
------
G#m  F#   C#m                 E  F#
Sometimes things get a little hazy
G#m  F#     C#m              E      F#
Sometimes I think I'm just a little crazy
G#m  F#           C#m              E   F#
     I don?t even know my own name
G#m  F#             C#m         E    F#
Soon all of me will go on up in flames, yeah

BREAK:
------
  G#m             F#              C#m             E       F#
e|--------7-4-----9-----------------------------------------------|
B|--------4-4-----7---9-7-----------5---5---5---------------------|
G|--------4-4-----6-----------------6---6---6---------------------|
D|------------------------------------------------------------6-6-|
A|----------------------------------------------6b7~~---7s9-------|
E|----------------------------------------------------------------|

VERSE:
------
G#m     F#    C#m            E     F#
Wearing scars on my arms and in my eyes
G#m     F#         C#m           E    F#
Are you friends or enemies in disguise
G#m  F#        C#m             E     F#
  So hard when everything just runs against me
G#m     F#    C#m         E         F#m
Jealous words turn into a love hate frenzy

CHORUS:
-------
B             F#
Won?t someone please understand
G#m       E        F#           G#m
Won?t someone lend me a helping hand

BREAK:
------
  G#m             F#              C#m             E       F#
e|--------7--7--7-9s11--11--------11--12-11s9-----14--12-11s9-7-7-|
B|----------------------------------------------------------------|
G|--------4--4--4-6s8---8---------8---9---8s6-----11--9---8s6-4-4-|
D|----------------------------------------------------------------|
A|----------------------------------------------------------------|
E|----------------------------------------------------------------|

VERSE:
------
G#m     F#    C#m                E      F#
Time is up to do the time that?s left undone
G#m          F#           C#m                  E       F#
It?s time to grab my hat, grab my coat I gotta load my gun
G#m   F#     C#m            E         F#       G#m
Silly things always are the ones that turn out worst
G#m    F#        C#m               E      F#           B
And it seems the ones who love you always hurt you the most

CHORUS:
-------
B             F#
Won?t someone please understand
G#m       E        F#           B
Won?t someone lend me a helping hand
              F#
Won?t someone please take the time to think
G#m              E                 F#                   G#m
Your actions and words, they don?t always say what they mean
[ Tab from: http://www.guitaretab.com/s/screaming-jets/94194.html ]
SOLO:
-----
  G#m             F#              C#m             E       F#
e|--------7--7--7-9s11--11--------11--12-11s9-----14--12-11s9-7-7-|
B|----------------------------------------------------------------|
G|--------4--4--4-6s8---8---------8---9---8s6-----11--9---8s6-4-4-|
D|----------------------------------------------------------------|
A|----------------------------------------------------------------|
E|----------------------------------------------------------------|

  G#m             F#              C#m             E       F#
e|------------------------------------------------14--12-11s9-7-7-|
B|----------------------------------------------------------------|
G|------------------------------------------------11--9---8s6-4-4-|
D|------------------4---------------------------------------------|
A|-----------2--4-6-------------2-6-66666-6-4---------------------|
E|--------4-----------------4-------------------------------------|

  B                               F#
e|----------------------------------------------------------------|
B|7-----7-----7-----7-----7---7-----------------------------------|
G|6b8---6b8---6b8---6b8---6b8-6b8-4h6-----------8s9---9---8-6---6b|
D|------------------------------------------------------------9---|
A|----------------------------------------------------------------|
E|----------------------------------------------------------------|

  G#m                             E               F#
e|----------------------------------------------------------------|
B|-------------------------------------------4--5-7--7--7-7--5----|
G|8---~-~-~-~-~-~-~-~-~-~-~-~-~-~----3--4-6---------------------8-|
D|--------------------------------6-------------------------------|
A|----------------------------------------------------------------|
E|----------------------------------------------------------------|

  G#m
e|--------7-4---4-----------------|
B|9-------4-4---4--etc...---------|
G|--------4-4---4-----------------|
D|--------------------------------|
A|--------------------------------|
E|--------------------------------|

VERSE:
------
G#m     F#            C#m              E    F#
Since I was a child I used to dream of many things
G#m  F#                 C#m                    E   F#
Superstars are bizarre, kings and their pretty queens
G#m    F#      C#m            E        F#     G#m
Now it seems I need a shot, a drink to jog my thoughts
G#m         F#                    C#m           E      F#
Why does it happen all the time - is it - is it just because

CHORUS:
-------
B              F#
Because no one will understand
G#m       E        F#           B
Won?t someone lend me a helping hand
                       F#
Oh yeah, won?t someone please take the time to think
G#m              E                 F#                   G#m
Your actions and words, they don?t always say what they mean

POST-CHORUS:
------------
G#m  F#                C#m   E   F#
     They don?t always say it
          G#m                    F#    C#m   E   F#
Why won?t somebody say what they mean, yeah

END:
----
  G#m             F#              C#m             E       F#
e|----7---7-4---4---2-----2-2---2---------------------------------|
B|----4---4-4---4---2-----2-2---2-----5---5-5-----5---5s7---7---4-|
G|----4---4-4---4---3-----3-3---3-----6---6-6-----4---4s6---6---4-|
D|---------------------4--------------6---6-6-----6---6s8---8---6-|
A|----------------------------------------------------------------|
E|----------------------------------------------------------------|

  G#m             F#              C#m             E       F#
e|----7---7-4---4---2-----2-2---2--------------------------------9-|
B|----4---4-4---4---2----2--2---2---------5-------------------7----|
G|----4---4-4---4---3---3---3---3--------6---6-------------6-------|
D|---------------------4----------------6--------------------------|
A|-------------------------------------4--------4-7--6--7----------|
E|-----------------------------------------------------------------|

  G#m
e|7p4-------------|
B|----------------|
G|----------------|
D|----------------|
A|----------------|
E|----------------|
Related for Helping Hand tab
Advertisement will be closed in 10 seconds