Guitaretab - guitar tabs
Song name
# A B C D E F G H I J K L M N O P Q R S T U V W X Y Z

Screaming Trees - Witness tab

                   Screaming Trees- Witness

Could be wrong, but sounds right to me, ill do the solo some other time.

Intro

e|-----------------------------------------------------------------|
B|-----------------------------------------------------------------|
G|-7--7-77---10--10-1010---12--12-1212---10-10-10-9-9-9\7----------|
D|-7--7-77---10--10-1010---12--12-1212---10-10-10-9-9-9\7----------|
A|-5--5-55---8---8--8-8----10--10-1010---8--8--8--7-7-7\5----------|
E|-----------------------------------------------------------------|

e|-----------------------------------------------------------------|
B|-----------------------------------------------------------------|
G|-7--7-77---10--10-1010---12--12-1212---15-15-15-14-14-14\7-------|
D|-7--7-77---10--10-1010---12--12-1212---15-15-15-14-14-14\7-------|
A|-5--5-55---8---8--8-8----10--10-1010---13-13-13-12-12-12\5-------|
E|-----------------------------------------------------------------|
[ Tab from: http://www.guitaretab.com/s/screaming-trees/146221.html ]
Main riff/verse riff
e|--------------------------------------------------|
B|--------------------------------------------------|
G|-7--7-\-5--5-5--10--1010--9/10\9------------------|
D|-7--7-\-5--5-5--10--1010--9/10\9------------------| multiple times
A|-5--5-\-3--3-3--8---8-8---7/8-\7------------------|
E|--------------------------------------------------|

Bridge
Part 1	Part 2
e|-----------------------------|  ---------------------------|
B|-----------------------------|  ---------------------------|
G|-7--77---------3--33--5-5-5--|  --10--1010--10/12-10-9-----|
D|-7--77--3-3-3--3--33--5-5-5--|x3--10--1010--10/12-10-9-----|x1
A|-5--55--3-3-3--1--11--3-3-3--|  --8---8-8---8-/10-8--7-----|
E|--------1-1-1----------------|  ---------------------------|

Chorus
e|-----------------------------------------------------------------|
B|-----------------------------------------------------------------|
G|-7-7-7-7-7-7-7-7--10--10-10-10-10-10-10-10--5--5-5-5-5-5-5-5----|
D|-7--7-7-7-7-7-7-7--10--10-10-10-10-10-10-10--5--5-5-5-5-5-5-3----|
A|-5--5-5-5-5-5-5-5--8---8--8--8--8--8--8--8---3--3-3-3-3-3-3-3----|
E|-----------------------------------------------------------------|

e|-----------------------|
B|-----------------------|
G|-3--3-3-3-3-3-3-3------|
D|-3--3-3-3-3-3-3-3------|
A|-1--1-1-1-1-1-1-1------|
E|-----------------------|

End
e|----------------------|
B|----------------------|
G|-7-7-7-7-7-7-7-7------|
D|-7-7-7-7-7-7-7-7------|
A|-5-5-5-5-5-5-5-5------|
E|----------------------|

Intro x1
Main riff x8
Bridge x1
Chorus x2
Main riff x8
Bridge x1
Chorus x2
Solo(bridge part 1)x4
Main riff x2
Bridge x1
Chorus x4
End (ages)



Related for Witness tab