Guitaretab - guitar tabs
Song name
# A B C D E F G H I J K L M N O P Q R S T U V W X Y Z

Screaming Trees - Troubled Times tab

Tabbed By: GrUnGe SpOnGe
Screaming Trees - Troubled Times (of 'Sweet Oblivion' - 1991)
Dropped D Tuning.

INTRO/ OUTRO:
[ Tab from: http://www.guitaretab.com/s/screaming-trees/50926.html ]
e:---------------------------------------------------------------------------|
B:---------------------------------------------------------------------------|
G:---------------------------------------------------------------------------|
D:--------------------------------3|5|---------------------------------------|
A:----0-------5-------0-------5---------------0---3---5---0-------5----------|
D:3---0---3---0---3---0---3---0-----------3---0---3---5---0---3---0----------|
                                     (3|5| = trill)

CHORUS CHORDS/ RIFF:

e:------------------------------------------------------------|
B:-----------------3---3---3---3---3---3---3---3---3----------|
G:-----------------2---2---2---2---2---2---2---2---2----------|
D:-----------------0---0---3---0---3---0---3---0---3----------|
A:------------------------------------------------------------|
D:------------------------------------------------------------|
Related for Troubled Times tab