Guitaretab - guitar tabs
Song name
# A B C D E F G H I J K L M N O P Q R S T U V W X Y Z

Screaming Trees - More Or Less tab

-------------------------------------------------------------------------------
			   More Or Less Ė Screaming Trees
-------------------------------------------------------------------------------

Tabbed by: brian_s
Email: branimir.sremec@kc.t-com.hr

Tuning: E A D G B e


Verse: E5 C5 G5

There's a little verse fill after the G5 chord, goes like this:
e---------|
B---------|
G---------|
D---------|
A---------|
E--2-3-2--|

Intro solo:
e---0----0/12----12-12-10-----------10-12v--10------------------------|
B-----------------------------10-12------------12---------------------|
G---------------------------------------------------------------------|
D---------------------------------------------------------------------|
A---------------------------------------------------------------------|
E---------------------------------------------------------------------|

e-----------------------10-8-7-----------10-12v--10-------------------|
B---12----10-12--12v---------------10-12------------------------------|
G---------------------------------------------------------------------|
D---------------------------------------------------------------------|
A---------------------------------------------------------------------|
E---------------------------------------------------------------------|

Verse 1:
Now that weíve run this road so many times
Tonight it will not take us home
Gonna go to that deep river
Where the waterís moving slow

Chorus 1: C5 D5
Feels like thereís nothing to explain
(nothing left to hear)
One more or less itís all the same
Now that itís feeling so much colder
(coming back again)
Just be glad that itís all over

Chorus solo:
e------------------------|
B---7-7-8-10--8-7--------|
G-----------------7--9---|
D------------------------|
A------------------------|
E------------------------|

Verse 2:
Now that weíve closed our eyes so many times
Tonight I cannot see a thing
Gonna go to that deep river
Where the waterís moving slow

Chorus 2:
Feels like thereís nothing to explain
(nothing left to hear)
And now you know just who to blame
For why youíre feeling so much colder
(coming back again)
Just be glad that itís all over

[ Tab from: http://www.guitaretab.com/s/screaming-trees/64878.html ]
Guitar solo:
e-----------------------------------------10--------8--10-8-----------|
B--------10---10--10-10-10-10-10-10--8-----------10---------10-10-----|
G---7-9--------------------------------9------------------------------|
D---------------------------------------------------------------------|
A---------------------------------------------------------------------|
E---------------------------------------------------------------------|

e-------------------------3---3---5---5-3----10-10-10-----------------|
B-----8---5-5---------3-5---5-------------5---------------------------|
G---9-----------2-2-4-------------------------------------------------|
D---------------------------------------------------------------------|
A---------------------------------------------------------------------|
E---------------------------------------------------------------------|

e----------8----8----8-------------8----8----8------------------------|
B---8/10-----10---10--------8/10-----10---10--------------------------|
G---------------------------------------------------------------------|
D---------------------------------------------------------------------|
A---------------------------------------------------------------------|
E---------------------------------------------------------------------|

e---12-10---8---------------------------------------------------------|
B-------------10-8-10-10-8--7-8-7-------------------------------------|
G----------------------------------9-7---9-7-9-7-9-7------------------|
D----------------------------------------------------9-7--------------|
A---------------------------------------------------------------------|
E---------------------------------------------------------------------|

e---------------------------------------------------------------------|
B---10----8---7-8-7-8-7-----------------------------------------------|
G-----------------------9-7--9----------------------------------------|
D---------------------------------------------------------------------|
A---------------------------------------------------------------------|
E---------------------------------------------------------------------|

Gonna go to that deep river
Related for More Or Less tab