Guitaretab - guitar tabs
Song name
# A B C D E F G H I J K L M N O P Q R S T U V W X Y Z

Screaming Trees - Alice Said tab

Intro
play this twice then go into the verse
           E                             D
E-----------------------|----------------------------------|
B-----------------------|----------------------------------|
G------------------/9-7-|-----------------/7-5-------------|
D-----6h7p6---6h7-------|-----4h5p4---4h5------------------|
A-7-7-------7-----------|-5-5-------5----------------------|
E-----------------------|----------------------------------|
       x2                                 x2

Verse
 E                        D                       A
E-----------------------|-----------------------|------------------------|
B-----------------------|-----------------------|------------------------|
G------------------/9-7-|-----------------/7-5--|------------------------|
D-----6h7p6---6h7-------|-----4h5p4---4h5-------|------------------/7-5--|
A-7-7-------7-----------|-5-5-------5-----------|-----4h5p4---4h5--------|
E-----------------------|-----------------------|-5-5-------5------------|

 Prechorus
 E                D             A                 D
E----------7------------5--------------10---------------5------|
B------------7------------5---------------10--------------5----|
G-----9--------9-----7------7------12--------12------7------7--|
D-7/9------------9/7----------7/12--------------12\7-----------|
A--------------------------------------------------------------|
E--------------------------------------------------------------|

Solo at 1:31

E---------------------------------------------------|
B---------------------------------------------------|
G-/14-14-13-13H14-------------14-13-14p13-14p13/16--|
D-----------------14-12h14p12-----------------------|
A---------------------------------------------------|
E---------------------------------------------------|
[ Tab from: http://www.guitaretab.com/s/screaming-trees/73928.html ]
 1:39
E------------------------------------------------------------------|
B--------------------------------------------------------------/17-|
G-/14-14-13-14p13---------------------------------/16-14-13-14-----|
D-----------------14-------12-14-12-14-14-14p12h14-----------------|
A--------------------12h14-----------------------------------------|
E------------------------------------------------------------------|

 1:48
E-----------------|---------------------------------------|
B-----------------|---------------------------------------|
G----13-14-13-----|-----11-12-11-/14-12-11-11h12p11-------|
D-/14---------14--|-/12-----------------------------12----|
A-----------------|---------------------------------------|
E-----------------|---------------------------------------|
       x2
 1:56
E------------------------------------|
B------------------------------------|
G-----13-14-13-/16-14-13-13h14p13----|
D-/14-----------------------------14-|
A------------------------------------|
E------------------------------------|

 2:00
E-------------------------------------------------|
B-------------------------------------------------|
G-----11-12-11-12b14r12-11----12p11----11---------|
D-/12----------------------12-------12----12/14---|
A-------------------------------------------------|
E-------------------------------------------------|
 Back into verse

 Little breakdown at 2:48.
 E                   D               A
E-------------------|---------------|----------------------------------|
B-------------------|---------------|----------------------------------|
G------9-----9------|-----7---7-----|----------------------------------|  x2
D-----------------9-|-------------7-|-----7---7----------7---7---------|
A-7-7-----7-----7---|-5-5---5---5---|-------------7--------------7-----|
E-------------------|---------------|-5-5---5---5---5-5----5---5-------|

 3:04 This part repeats a bunch of times
E-----------------|-----------------|-----------------------------------|
B-----------------|-----------------|-----------------------------------|
G-----13-14-13----|-----11-12-11----|-----------------------------------|
D-/14----------14-|-/12----------12-|-----11-12-11----12-11----12-11----|
A-----------------|-----------------|-/12----------12-------12-------12-|
E-----------------|-----------------|-----------------------------------|
Related for Alice Said tab