Song name
# A B C D E F G H I J K L M N O P Q R S T U V W X Y Z

Screaming Trees - Before We Arise tab

"Before We Arise" by Screaming Trees
Off of the album 'Uncle Anesthesia.'

Verse:
e|------------------------------|
B|------------------------------|
G|------------------------------|
D|------------------------------|
A|------2----5----4----3----2---|
E|--0------0----0----0----0-----|

Chorus:
e|------3-----3--------2-----2----------0-----0-----0-----0-----0---|
B|--------3-----3---4----4-----4----0-----0-----0-----0-----0-----0-|
G|--0-------0-----0-4------4-----4--1-------1-----1-----1-----1-----|
D|--0---------------4---------------2-------------------------------|
A|--2---------------2---------------2-------------------------------|
E|--3-------------------------------0-------------------------------|

e|------3-----3--------2-----2----------0-----0---------2-----2------|
B|--------3-----3---4----4-----4----0-----0-----0---4-----4-----4----|
G|--0-------0-----0-4------4-----4--1-------1-----1-4-------4-----4--|
D|--0---------------4---------------2---------------4----------------|
A|--2---------------2---------------2---------------2----------------|
E|--3-------------------------------0--------------------------------|

Ending:
e|----------------------------------------|
B|----------------------------------------|
G|------------------------------0h2--1----|        h = hammer-on
D|------------------------------0h2--2----|
A|------2----5----4----3----2---0----2----|
E|--0------0----0----0----0---------------|
Tap to rate this tab
# A B C D E F G H I J K L M N O P Q R S T U V W X Y Z