Song name
# A B C D E F G H I J K L M N O P Q R S T U V W X Y Z

Screeching Weasel - Slomotion tab

Intro
| --------- |
| --------- |
| --------- |
| --6-6-6-- |
| --6-6-6-- |
| --4-4-4-- |

| ---------------------------------------------------- |
| ---------------------------------------------------- |
| -------9------------9------------9------------11-11- |
| --6-6--9--9----6-6--9--9----6-6--9--9----9-9--11-11- |
| --6-6--7--9----6-6--7--9----6-6--7--9----9-9--9--9-- |
| --4-4-----7----4-4-----7----4-4-----7----7-7-------- |(x2)


| --------------- |
| --------------- |
| --------------- |
| --5-6-5-6-5-6-- |
| --5-6-5-6-5-6-- |
| --3-4-3-4-3-4-- |


Verse
| ---------------------------------------------------- |
| ---------------------------------------------------- |
| -------9------------9------------9------------11-11- |
| --6-6--9--9----6-6--9--9----6-6--9--9----9-9--11-11- |
| --6-6--7--9----6-6--7--9----6-6--7--9----9-9--9--9-- |
| --4-4-----7----4-4-----7----4-4-----7----7-7-------- |(x2)


| --------------- |
| --------------- |
| --------------- |
| --5-6-5-6-5-6-- |
| --5-6-5-6-5-6-- |
| --3-4-3-4-3-4-- |


Chorus

| -------------------------------------------------------- |
| -------------------------------------------------------- |
| -------11-11-------9-9-------11-11---------------------- |
| --6-6--11-11--9-9--9-9--9-9--11-11--6-5-6--------------- |
| --6-6--9--9---9-9--7-7--9-9--9--9---6-5-6--------------- |
| --4-4---------7-7-------7-7---------4-3-4--------------- |(x2)


| --------------- |
| --------------- |
| --------------- |
| --5-6-5-6-5-6-- |
| --5-6-5-6-5-6-- |
| --3-4-3-4-3-4-- |
Tap to rate this tab
# A B C D E F G H I J K L M N O P Q R S T U V W X Y Z