Song name
# A B C D E F G H I J K L M N O P Q R S T U V W X Y Z

Screeching Weasel - I Love You tab

Song: I Love You
Band: Screeching Weasel
Album: Teen Punks in Heat

--------------         --------     
--------------         -------- 
--9--------9--         -------- 
--9--9--7--9--   x2    --7--9--    x1
--7--9--7--7--         --7--9-- 
-----7--5-----         --5--7--


---------------------           --------
---------------------           --------
--9---------------9--           -------- 
--9----9----7--9--9--     x2    --7--9--    x1
--7----9----7--9--7--           --7--9-- 
-------7----5--7-----           --5--7--


-----                        ---------------    end on: ---
-----                        ---------------            ---
--9--  ring out...           --9-----11-----            -9-
--9--  (Bass Solo,) then:    --9--9--11--7--  x2        -9-
--7--                        --7--9---9--7--            -7-
-----                        -----7------5--            ---
Tap to rate this tab
 
# A B C D E F G H I J K L M N O P Q R S T U V W X Y Z