Guitaretab - guitar tabs
Song name
# A B C D E F G H I J K L M N O P Q R S T U V W X Y Z

Screeching Weasel - My Song tab

-------------------------------------------------------------------------------
                         MY SONG - Screeching Weasel
-------------------------------------------------------------------------------

By:Nate Gangelhoff (NateCj@earthlink.net)
[ Tab from: http://www.guitaretab.com/s/screeching-weasel/133617.html ]
Verse (also bass part for bridge thing)
e|--------------------|
B|--------------------|
G|---------9----------|
D|----11---9---7---9--|
A|----11---7---7---9--|
E|----9--------5---7--|

Chorus
e|----------------------|
B|----------------------|
G|----------------------|
D|----7--2--7--2--7--9--|
A|----7--2--7--2--7--9--|
E|----5--0--5--0--5--7--|

Alternates between the two.
That's all!
Related for My Song tab
My Song chords by Screeching Weasel