Song name
# A B C D E F G H I J K L M N O P Q R S T U V W X Y Z

Screeching Weasel - Breaking Point tab

-------------------------------------------------------------------------------
                     BREAKING POINT - Screeching Weasel
-------------------------------------------------------------------------------

Tabbed by Ruud Hermans Punksoft@hotmail.com

INTRO
e|------------------------------------------------------------------------------|
B|------------------------------------------------------------------------------|
G|---5-5-5-5-5-5-5-5------------------------------------------------------------|
D|---5-5-5-5-5-5-5-5--3-3-3-3--5-5-5-5------------------------------------------|
A|---3-3-3-3-3-3-3-3--3-3-3-3--5-5-5-5------------------------------------------|
E|--------------------1-1-1-1--3-3-3-3------------------------------------------|
     Do you ever ....

       pm....         pm....           pm....           pm....
e|------------------------------------------------------------------------------|
B|------------------------------------------------------------------------------|
G|------------------5-5-5-5-5-5-5-5---------------------------------------------|
D|---3-3-3-3-3-3-3--5-5-5-5-5-5-5-5--5-5-5-5-5-5-5-5--7-7-7-7-7-7-7-7-----------|
A|---3-3-3-3-3-3-3--3-3-3-3-3-3-3-3--5-5-5-5-5-5-5-5--7-7-7-7-7-7-7-7-----------|
E|---1-1-1-1-1-1-1-------------------3-3-3-3-3-3-3-3--5-5-5-5-5-5-5-5-----------|
     Why not gossip ....

       pm....         pm....           pm....
e|------------------------------------------------------------------------------|
B|------------------------------------------------------------------------------|
G|------------------5-5-5-5-5-5-5-5-------------------5-5-5---------5-5-5-------|
D|---3-3-3-3-3-3-3--5-5-5-5-5-5-5-5--5-5-5-5-5-5-5-5--5-5-5--5-5-5--5-5-5-------|
A|---3-3-3-3-3-3-3--3-3-3-3-3-3-3-3--5-5-5-5-5-5-5-5--3-3-3--5-5-5--3-3-3-------|
E|---1-1-1-1-1-1-1-------------------3-3-3-3-3-3-3-3---------3-3-3--------------|
     The U.S. Open ....

The rest of the song is almost the same, so you can figure it out yourself
Tap to rate this tab
 
# A B C D E F G H I J K L M N O P Q R S T U V W X Y Z